Log in

One click and you are in

Login with Facebook Login with Google

Why sign up and log in

Guitar Tabs Explorer
Xxxtentacion guitar tabs for Hearteater

Solo tabs

Tuning: Standard (E A D G B E)

Difficulty: Intermediate

Solo:

e|---------------------------------------------------------------------------|
B|-10/13-10-10/13-12-10-10-12-13\10-10-15/17-15\13-13-12-13\10-10------------|
G|----------------------------------------------------------------12/14-12\9-|
D|---------------------------------------------------------------------------|
A|---------------------------------------------------------------------------|
E|---------------------------------------------------------------------------|

e|---------------------------------------------------------------------------|
B|-----------------------------------------------------17--------------------|
G|-9h10-9\7-7h9-5-5h7/9-7h9/12-10h12/14-12h14/16/17-19-----------------------|
D|---------------------------------------------------------------------------|
A|---------------------------------------------------------------------------|
E|---------------------------------------------------------------------------|


Chorus:

e|---------------------------------------------------------------------------|
B|-15/17-15----15/18-17-15---------------------------------------------------|
G|----------17-------------17-16-16-16-16\14---------------------------------|
D|---------------------------------------------------------------------------| x3
A|---------------------------------------------------------------------------|
E|---------------------------------------------------------------------------|

e|---------------------------------------------------------------------------|
B|---------------------------------------------------------------------------|
G|-12/14-14-14-14-16-16-16-16------------------------------------------------|
D|---------------------------------------------------------------------------|
A|---------------------------------------------------------------------------|
E|---------------------------------------------------------------------------|

Chorus:

e|---------------------------------------------------------------------------|
B|-15/17-15----15/18-17-15---------------------------------------------------|
G|----------17-------------17-16-16-16-16\14---------------------------------|
D|---------------------------------------------------------------------------| x2
A|---------------------------------------------------------------------------|
E|---------------------------------------------------------------------------|

e|---------------------------------------------------------------------------|
B|-15/17-15----15/18-17-15---------------------------------------------------|
G|----------17-------------16-16-16-17-16/17-17/19-19/21-21/24-24/21---------|
D|---------------------------------------------------------------------------|
A|---------------------------------------------------------------------------|
E|---------------------------------------------------------------------------|


************************************

| x   Dead note
| g   Grace note
| (n) Ghost note
| h   Hammer-on
| p   Pull-off
| r   Release
| >   Accented note
| t   Tapping
| b   Bend
| br  Bend release
| pb  Pre-bend
| pbr Pre-bend release
| /   Slide up
| \   Slide down
| ~   Vibrato
| s   Slap
| P   Pop
| PM  Palm mute
| TR  Trill
| N   Tremolo

************************************

Other versions of Hearteater

HearteaterChords
Hearteater (Ver. 2)Chords
Hearteater (Ver. 2)Tabs

Almost there ...

Sign in to get your own page with links to favourite songs and more. You are just one click away...

Login with Facebook Login with Google