Log in

One click and you are in

Login with Facebook Login with Google

Why sign up and log in

Guitar Tabs Explorer
Xxxtentacion bass tabs for Hearteater

Bass tabs

Tuning: Standard (E A D G)

Bpm:100

Verse 1:

G|----------------------------------|
D|----------------------------------|
A|----------------------------------|
E|5~---------\-1-1-1-1/3-3-3-3------|

G|----------------------------------|
D|----------------------------------|
A|----------------------------------|
E|5~-----/-10-10-10-10/12-12-12-12--|

Optional:
If You Want To Play In With The The Vocals

Hearteater...
G|9--7-5---10--9-7-5-4--2h4p2-------|
D|----------------------------------|
A|----------------------------------|
E|----------------------------------|

Posion...
G|5-2~----5--4-2-4--5--2------------|
D|----------------------------------|
A|----------------------------------|
E|----------------------------------|

G|9-7-5-4-2-4-----------------------|
D|----------------------------------|
A|----------------------------------|
E|----------------------------------|repeat


************************************

| / Slide up
| \ Slide down
| ~ Vibrato
| h Hammer-on
| p Pull-off

************************************

Almost there ...

Sign in to get your own page with links to favourite songs and more. You are just one click away...

Login with Facebook Login with Google