Log in

One click and you are in

Login with Facebook Login with Google

Why sign up and log in

Guitar Tabs Explorer
Xxxtentacion guitar tabs for Difference

Guitar tabs

Tuning: Standard (E A D G B E)

Difficulty: Novice

xxxtentacion  "difference"
Lead
riff1                           r1b             r2                  r3

e|-------0--2--7-----5---------|-------------| |-0----0----0--2---|-------------------|
B|----------------------7---5--|-7-----0-----| |----3----3--------|----5---5----5--7--|
G|-----------------------------|-----7-------| |------------------|--7---7---7--------|
D|-----------------------------|-------------| |------------------|-------------------|
A|-----------------------------|-------------| |------------------|-------------------|
E|-----------------------------|-------------| |------------------|-------------------|

r4
e|------7---5-------------------|---5--5-----2--0------2--0-----2--0--|--5--5----7--5------------|
B|--5-7--------7--5--7-----5----|-------------------------------------|------------------7--5----|
G|----------------------7-------|-------------------------------------|--------------------------|
D|------------------------------|-------------------------------------|--------------------------|
A|------------------------------|-------------------------------------|--------------------------|
E|------------------------------|-------------------------------------|--------------------------|

 Rhyt
   A chord diagramB minorBm                 a    g
e|--------------------2----2----2----|------7------5--------3--3------|
B|--3----------3------2----0----0----|------7------5--------3--3------|
G|--4--------4-4---2--2----0----0----|------7------6--------4--4------|
D|--4------4---4------2----0----0----|----9-9----7-7--------5--5------|
A|--2----2-----2--0---0----0----0----|------9------7--------5--5------|
E|------(2)----2---------3-3----3----|--7---7---5--5--5-3-3----3------|


************************************

| (n)  Ghost note

************************************

Other versions of Difference

DifferenceChords
Difference (Ver. 2)Chords
Difference interludeChords
Difference interlude (Ver. 2)Chords

↓ Add and view comments below ↓

What do you think about this song and these tabs?

Add your comments, questions, rant or a thumbs up below.

Almost there ...

Sign in to get your own page with links to favourite songs and more. You are just one click away...

Login with Facebook Login with Google