Search tabs and chords

Search for song, artist or band

Log in

One click and you are in

Login with Facebook Login with Google

Why sign up and log in

Guitar Tabs Explorer
Xxxtentacion guitar chords for Changes ukulele

Guitar chords

Tuning: G C E A (G C E A)

Main riff:
A|-7-----------4-----------2-2-2-2-2-2-2-2---|
E|-0-----------------------4-------------2---|
C|-------------1-----------------------------|
G|-4--4--4--4--4--4--4--4--1-----------------|
Or if you want a beginner version

A|-2--2--2--2--2--2--2--2--2--2--2--2--2--2--2--2--|
E|-0-----------------------4--------------------2--|
C|-------------1-----------------------------------|
G|-------------------------------------------------|
Plays throughout the whole song

Almost there ...

Sign in to get your own page with links to favourite songs and more. You are just one click away...

Login with Facebook Login with Google