Search tabs and chords

Search for song, artist or band

Log in

One click and you are in

Login with Facebook Login with Google

Why sign up and log in

Guitar Tabs Explorer
Xxxtentacion guitar tabs for Bad

Guitar tabs

  • Capo on 1st
Tuning: Standard (E A D G B E)

Difficulty: Advanced


Intro:

   O   O        O     O O       O       O      O        O O     O     O         O       O O
e|-------0-2/-----------x-----------x—2/-----------x-----------0-2/-----------x---|
B|-------0--------------x-----------/5-------------x-----------0--------------x---|
G|-------0--------------0-----------0--------------0-----------0--------------0---|
D|-2-----x--------------0-0-0h2-----x--------------0-0-0h2-----x--------------0-0-|
A|-2-2---x----10-10---9-x---0h2-2---x----10-10---9-x---0h2-2---x----10-10---9-x---|
E|-0-----x----8-------7-x---0-------x----8-------7-x---0-------x----8-------7-x---|

   O    O       O     O
e|---------x--2/---------x--------------------------------------------------------|
B|---------/5------------0-3-3p0--------------------------------------------------|
G|---------0-------------0--------------------------------------------------------|
D|-0h2-----x-------------x--------------------------------------------------------|
A|-0h2-2---x-----10-10---x--------------------------------------------------------|
E|-0-------x-----8-------x--------------------------------------------------------|


Chorus:

   O   O        O       O       O   O          O        O       O       O
e|-0-----x---------------------0--------------------------0---x-------------------|
B|-0-----0-0-0-0h3-3---3-3-3p0-0------0-0-0h3-3---3-3-3p0-0---0-0-0-0h1-0---------|
G|-------0-----0-------0--------------x-------0-------0---------M-0-----0---------|
D|---2---x-----2-------0---------2----x-------2-------0---------?-0-----2-----2---|
A|---2---x-----3-----3-2---------2----x-------3-----3-2-----------x-----3---------|
E|-0-----x---------------------0------x-----------------------0---x---------------|

   O    O       O                       O   O       O           O       O   O
e|------------------------------x-x-------0-----x---------------------0-----------|
B|-0h1-0---0h1-0---0h1-0--------x-0h3-3p0-0-----0-0-0-0h3-3---3-3-3p0-0------0----|
G|-0-------0-------0----------M-x-0-------------0-----0-------0--------------x----|
D|-0-----0-2-----2-0-----0----?-x-x---------2---x-----2-------0---------2----x----|
A|-2-------0--------------------x-x---------2---x-----3-----3-2---------2----x----|
E|-----------------3-------h2---x-x-------0-----x---------------------0------x----|

     O          O       O         O       O     O       O       O
e|-------------------0---x---------------------------------------------x----------|
B|-0-0h3-3---3-3-3p0-0---0-0-0-0h1-0---0h1-0---0h1-0---0h1-0---0h1-0---0h1-0------|
G|---0-------0---------M-0-----0-------0-------0-------0-------0-------0---0------|
D|---2-------0---------?-0-----2-----2-0-----0-2-----2-0-----0-0-------x----------|
A|---3-----3-2-----------x-----3-------2-------0-----------------------x----------|
E|-------------------0---x-----------------------------3-------2-----2-x----------|

Verse:

   O   O        O       O       O                       O       O               O
e|-------0-0------------------------x------x--------------------x-------x-----x---|
B|-------0-0------------------------x------x--------------------0-3p0-0-x-----x---|
G|-------0-0-2-2-2p0-/4-2---2-2-2p0-/4-4\2-x-2-2-2p0-/4-2---0---0-------x---f-0---|
D|---2---x-x-2------------0-0-------x------x-0--------------0---2-------x-----x-4-|
A|---2---x-x-3-------2--------------x------x---------2----------x-------x-----x---|
E|-0-----x-x----------------0-------x------x--------------0---0-x-------x-----x---|

        O
e|-----------x-----x--------------------------------------------------------------|
B|-----------x-----x---------0-3-3p0----------------------------------------------|
G|-----------x-----x---------0----------------------------------------------------|
D|-4---4-4-4-2/5-4-x-4-4-4--------------------------------------------------------|
A|---2-2-----x-----x-3-----3-2----------------------------------------------------|
E|-----0-----x-----x--------------------------------------------------------------|


Chorus:

   O   O        O       O       O   O          O        O       O         O
e|-0-----x---------------------0--------------------------0---x-------------------|
B|-0-----0-0-0-0h3-3---3-3-3p0-0------0-0-0h3-3---3-3-3p0-0---0-0-0-0h1-0---------|
G|-------0-----0-------0--------------x-------0-------0---------M-0-----0---------|
D|---2---x-----2-------0---------2----x-------2-------0---------?-0-----2-----2---|
A|---2---x-----3-----3-2---------2----x-------3-----3-2-----------x-----3---------|
E|-0-----x---------------------0------x-----------------------0---x---------------|

   O    O       O                       O   O       O           O          O   O
e|------------------------------x-x-------0-----x---------------------0-------|
B|-0h1-0---0h1-0---0h1-0--------x-0h3-3p0-0-----0-0-0-0h3-3---3-3-3p0-0------0|
G|-0-------0-------0----------M-x-0-------------0-----0-------0--------------x----|
D|-0-----0-2-----2-0-----0----?-x-x---------2---x-----2-------0---------2----x----|
A|-2-------0--------------------x-x---------2---x-----3-----3-2---------2----x----|
E|-----------------3-------h2---x-x-------0-----x---------------------0------x----|

     O          O       O         O       O     O       O       O
e|-------------------0---x---------------------------------------------x----------|
B|-0-0h3-3---3-3-3p0-0---0-0-0-0h1-0---0h1-0---0h1-0---0h1-0---0h1-0---0h1-0------|
G|---0-------0---------M-0-----0-------0-------0-------0-------0-------0---0------|
D|---2-------0---------?-0-----2-----2-0-----0-2-----2-0-----0-0-------x----------|
A|---3-----3-2-----------x-----3-------2-------0-----------------------x----------|
E|-------------------0---x-----------------------------3-------2-----2-x----------|


Outro:

   O   O        O     O O       O     O         O       O O     O       O       O     O O
e|-------0-2/-----------x-----------x—2/-----------x-----------0-2/-----------x---|
B|-------0--------------x-----------/5-------------x-----------0--------------x---|
G|-------0--------------0-----------0--------------0-----------0--------------0---|
D|-2-----x--------------0-0-0h2-----x--------------0-0-0h2-----x--------------0-0-|
A|-2-2---x----10-10---9-x---0h2-2---x----10-10---9-x---0h2-2---x----10-10---9-x---|
E|-0-----x----8-------7-x---0-------x----8-------7-x---0-------x----8-------7-x---|

   O    O       O     O O O
e|---------x--2/------------------------------------------------------------------|
B|---------/5---------------------------------------------------------------------|
G|---------0----------------------------------------------------------------------|
D|-0h2-----x----------------------------------------------------------------------|
A|-0h2-2---x-----10-10---9-9\-----------------------------------------------------|
E|-0-------x-----8-------7-7\-----------------------------------------------------|

Legend

V = strum down
? = strum up
M = mute strum
x  = slap strings
f = fret tap
O = wrist bump
\ = slide down
/ = slide up
h = hammer on
p = pull off
 : = strum

Other versions of Bad

BadChords

Almost there ...

Sign in to get your own page with links to favourite songs and more. You are just one click away...

Login with Facebook Login with Google