Log in

One click and you are in

Login with Facebook Login with Google

Why sign up and log in

Guitar Tabs Explorer
Xxxtentacion guitar tabs for Alone part 3

Guitar tabs

Intro

e|---------------------------------|---------------------------------|
B|-----0-------0-------0-------0---|-----0-------0-------0-------0---|
G|---5-------5-------5-------5-----|---5-------5-------5-------5-----|
D|-7-------7-------7-------7-------|-5-------5-------5-------5-------|
A|---------------------------------|---------------------------------|
E|---------------------------------|---------------------------------|

e|---------------------------------|---------------------------------|
B|-----0-------0-------0-------0---|-----0-------0-------0-------0---|
G|---5-------5-------5-------5-----|---5-------5-------5-------5-----|
D|---------------------------------|---------------------------------|
A|-7-------7-------7-------7-------|---------------------------------|
E|---------------------------------|-7-------7-------7-------7-------|

Almost there ...

Sign in to get your own page with links to favourite songs and more. You are just one click away...

Login with Facebook Login with Google