Log in

One click and you are in

Login with Facebook Login with Google

Why sign up and log in

Guitar Tabs Explorer
The Xx guitar tabs for Tides

Guitar tabs

Album: Coexist
Tabbed by: gustavoaraujo999@hotmail.com

Very simple song.


[Verse]
e|---------|----------|----------|---------|
B|---------|----------|----------|---------|
G|-9-------|-12-------|-10-------|-9-------|
D|---10----|----12----|----12----|---10----|
A|------12-|-------14-|-------12-|------12-|
E|---------|----------|----------|---------|


[Chorus]
e|--------------------------------------------------------|
B|--------------------------------------------------------|
G|-9-----9-9-10-9-9-------9-9-10-9--------9-9-10-9--------|
D|------------------9--------------10---------------7-/-9-|
A|--------------------------------------------------------|
E|--------------------------------------------------------|

See? Told you.

Almost there ...

Sign in to get your own page with links to favourite songs and more. You are just one click away...

Login with Facebook Login with Google