Log in

One click and you are in

Login with Facebook Login with Google

Why sign up and log in

Guitar Tabs Explorer
The Xx guitar tabs for Teardrops

Guitar tabs

Teardrops
The XX
(cover from Womack and Womack)

Tabbed by KK Espada

Correction is welcome
Intro:

|------55----------------------------55-------------66----------|
|----------66---------------------------66-------------88-------|
|---77---------77--9999-10-10-99--77-------77--9999-------------|
|---------------------------------------------------------------|
|---------------------------------------------------------------|
|---------------------------------------------------------------|

|------55----------------------------55-------------------------|
|----------66-----------------------------66--------------------|
|---77---------77--9999-10-10-99--77-----------77/9-------------|
|---------------------------------------------------------------|
|---------------------------------------------------------------|
|---------------------------------------------------------------|


Verse:
|---5-------5----10-------|
|---6-------6----11-------|
|---7-------7----12-------| (x4)
|-------------------------|
|-------------------------|
|-------------------------|

(I'll be true...)
|---5-------5-----5555555555555------|
|---6-------6-----6666666666666------|
|---7-------7-----7777777777777------|
|------------------------------------|
|------------------------------------|
|------------------------------------|

Chorus :
(Footsteps on the dance floor...)
|---55-------------------|            |---5------5-------|
|-------66------66-------|            |---6---------6----|
|-----------77-----------|(x13)       |---7------------7-|(x1)
|------------------------|            |------------------|
|------------------------|            |------------------|
|------------------------|            |------------------|

(And the music...)
|------------------------|
|------------------------|
|--77777777-99999999-----| (x3)
|------------------------|
|------------------------|
|------------------------|

|------------------------|
|------------------------|
|--77777777-9999/10/12---|
|------------------------|
|------------------------|
|------------------------|


Guitar solo (the same as Intro)


Verse


Chorus

(And the music...)
|------------------------|
|------------------------|
|--77777777-99999999-----| (x3)
|------------------------|
|------------------------|
|------------------------|

|-----------------------------|
|-----------------------------|
|--77777777-9999/10/12\10\7---|
|-----------------------------|
|-----------------------------|
|-----------------------------|

End.

Almost there ...

Sign in to get your own page with links to favourite songs and more. You are just one click away...

Login with Facebook Login with Google