Log in

One click and you are in

Login with Facebook Login with Google

Why sign up and log in

Guitar Tabs Explorer
The Xx bass tabs for On hold

Bass tabs

(Come in at 0:36)
G|----------------------------------------------------------------|
D|----------------------------------------------------------------|
A|0-0-0-0-0-0-0-0-0-0-0-0-0-0-0-0-3-3-3-3-3-3-3-3-3-3-3-3-3-3-3-3-|
E|----------------------------------------------------------------|

G|----------------------------------------------------------------|
D|----------------------------------------------------------------|
A|5-5-5-5-5-5-5-5-5-5-5-5-5-5-5-5-8-8-8-8-8-8-8-8-8-8-8-8-8-8-8-8-|
E|----------------------------------------------------------------|

G|----------------------------------------------------------------|
D|----------------------------------------------------------------|
A|3-3---3-3-3---3-3-3---3-3-3---3-0-0---0-0-0---0-0-0---0-0-0---0-|
E|----------------------------------------------------------------|

G|----------------------------------------------------------------|
D|----------------------------------------------------------------|
A|8-8---8-8-8---8-8-8---8-8-8---8-5-5---5-5-5---5-5-5---5-5-5-----|
E|----------------------------------------------------------------|

G|----------------------------------------------------------------|
D|----------------------------------------------------------------|
A|3-3---3-3-3---3-3-3---3-3-3---3-0-0---0-0-0---0-0-0---0-0-0---0-|
E|----------------------------------------------------------------|

G|----------------------------------------------------------------|
D|----------------------------------------------------------------|
A|8-8---8-8-8---8-8-8---8-8-8---8-5-5---5-5-5---5-5-5---5-5-5-----|
E|----------------------------------------------------------------|

G|----------------------------------------------------------------|
D|--------------------------------5-5-5-5-5-5-5-5-5-5-5-5-5-5-5-5-|
A|3-3-3-3-3-3-3-3-3-3-3-3-3-3-3-3---------------------------------|
E|----------------------------------------------------------------|

G|----------------------------------------------------------------|
D|7-7-7-7-7-7-7-7-7-7-7-7-7-7-9-9-10-10-10-10-10-10-10-10-10------|
A|----------------------------------------------------------------|
E|----------------------------------------------------------------|

G|----------------------------------------------------------------|
D|--------------------------------5-5-5-5-5-5-5-5-5-5-5-5-5-5-5-5-|
A|3-3-3-3-3-3-3-3-3-3-3-3-3-3-3-3---------------------------------|
E|----------------------------------------------------------------|

G|----------------------------------------------------------------|
D|7-7-7-7-7-7-7-7-7-7-7-7-7-7-9-9-10-10-10-10-10-10-10-10-10------|
A|----------------------------------------------------------------|
E|----------------------------------------------------------------|

(Rest from 1:51 to 2:07)
G|----------------------------------------------------------------|
D|----------------------------------------------------------------|
A|0-0-0-0-0-0-0-0-0-0-0-0-0-0-0-0-3-3-3-3-3-3-3-3-3-3-3-3-3-3-3-3-|
E|----------------------------------------------------------------|

G|----------------------------------------------------------------|
D|----------------------------------------------------------------|
A|5-5-5-5-5-5-5-5-5-5-5-5-5-5-5-5-8-8-8-8-8-8-8-8-8-8-8-8-8-8-8-8-|
E|----------------------------------------------------------------|

G|----------------------------------------------------------------|
D|----------------------------------------------------------------|
A|3-----------------------------3-0-----------------------0-------|
E|----------------------------------------------------------------|

G|----------------------------------------------------------------|
D|----------------------------------------------------------------|
A|8-------------------------------5-5-5-5-5-5-5-5-5-5-5-5-5-5-5-5-|
E|----------------------------------------------------------------|

G|----------------------------------------------------------------|
D|----------------------------------------------------------------|
A|3-3---3-3-3---3-3-3---3-3-3---3-0-0---0-0-0---0-0-0---0-0-0---0-|
E|----------------------------------------------------------------|

G|----------------------------------------------------------------|
D|----------------------------------------------------------------|
A|8-8---8-8-8---8-8-8---8-8-8---8-5-5---5-5-5---5-5-5---5-5-5---5-|
E|----------------------------------------------------------------|

G|----------------------------------------------------------------|
D|----------------------------------------------------------------|
A|3-3---3-3-3---3-3-3---3-3-3---3-0-0---0-0-0---0-0-0---0-0-0---0-|
E|----------------------------------------------------------------|

G|----------------------------------------------------------------|
D|----------------------------------------------------------------|
A|8-8---8-8-8---8-8-8---8-8-8---8-5-5---5-5-5---5-----------------|
E|----------------------------------------------------------------|

G|----------------------------------------------------------------|
D|----------------------------------------------------------------|
A|3-----------------------------3-0-------------------------------|
E|----------------------------------------------------------------|

G|----------------------------------------------------------------|
D|----------------------------------------------------------------|
A|8-----------------------------8-5-------------------------------|
E|----------------------------------------------------------------|

G|----------------------------------------------------------------|
D|----------------------------------------------------------------|
A|3-------------------------------0-------------------------------|
E|----------------------------------------------------------------|

G|----------------------------------------------------------------|
D|----------------------------------------------------------------|
A|8-------------------------------5-------------------------------|

Almost there ...

Sign in to get your own page with links to favourite songs and more. You are just one click away...

Login with Facebook Login with Google