Log in

One click and you are in

Login with Facebook Login with Google

Why sign up and log in

Guitar Tabs Explorer
The Xx guitar tabs for I dare you

Guitar tabs

I DARE YOU – THE XX


Verse:
e|-----------------------------------------------------------|
B|-----------------------------------------------------------|
G|-8-8/10-8--6-10----8-8/10-8--6-10----8-8/10-8--6-----------|
D|-----------------------------------------------------------|
A|-----------------------------------------------------------|
E|-----------------------------------------------------------|

e|-------------------------------------------|
B|-------------------------------------------|
G|-10-10-10-10-13-10----10-10-10-10-13-10----|
D|-------------------------------------------|
A|-------------------------------------------|
E|-------------------------------------------|

e|-----------------------------------------------------------|
B|-----------------------------------------------------------|
G|-10---------5--------3--------13--10-10-8-6--8-8/10-8/6----|
D|-----------------------------------------------------------|
A|-----------------------------------------------------------|
E|-----------------------------------------------------------|


Chorus:
e|----------------------------------------------------------------------------|
B|----------------------------------------------------------------------------|
G|-10-10-10-10-10-10-10-10-5-5-5-5-5-5-5-5-3-3-3-3-3-3-3-3-3-3-3-3-3-3-3-3----| x2
D|----------------------------------------------------------------------------|
A|----------------------------------------------------------------------------|
E|----------------------------------------------------------------------------|


Bridge:
e|-----------------------------------------------------------|
B|-----------------------------------------------------------|
G|-8-8-8/10-8--6-6-6/8------8-8-8/10-8--6-6-6/8--------------|
D|---------------------8------------------------8------------|
A|-----------------------------------------------------------|
E|-----------------------------------------------------------|

e|-----------------------------------------------------------|
B|-----------------------------------------------------------|
G|-8-8-8/10-8--6-6-6/8------8-8-8/10-8--6-6-8/6--------------|
D|---------------------8------------------------8------------|
A|-----------------------------------------------------------|
E|-----------------------------------------------------------|

Chorus:
e|----------------------------------------------------------------------------|
B|----------------------------------------------------------------------------|
G|-10-10-10-10-10-10-10-10-5-5-5-5-5-5-5-5-3-3-3-3-3-3-3-3-3-3-3-3-3-3-3-3----| x4
D|----------------------------------------------------------------------------|
A|----------------------------------------------------------------------------|
E|----------------------------------------------------------------------------|


Outro:
e|-----------------------------------------------------------|
B|-----------------------------------------------------------|
G|-8-8/10-8--6-10----8-8/10-8--6-10----8-8/10-8--6-----------|
D|-----------------------------------------------------------|
A|-----------------------------------------------------------|
E|-----------------------------------------------------------|
                                                                    X2
e|-------------------------------------------|
B|-------------------------------------------|
G|-10-10-10-10-13-10----10-10-10-10-13-10----|
D|-------------------------------------------|
A|-------------------------------------------|
E|-------------------------------------------|

***********************************

| h   Hammer-on
| x   Dead note
| /   Slide-up
| pb  Pre-bend
| ~   Vibrato
| .   Staccato

Other versions of I Dare You

I dare youChords

Almost there ...

Sign in to get your own page with links to favourite songs and more. You are just one click away...

Login with Facebook Login with Google