Log in

One click and you are in

Login with Facebook Login with Google

Why sign up and log in

Guitar Tabs Explorer
The Xx bass tabs for Hot like fire

Bass tabs

h- hammer on

No one has posted anything for this, and i like the bassline, so i decided to do a
tab. here it is:

G--------------------------------------------------|
D--------------10--10-10-10------------------------|
A--8--8-8-8-8----------------10--10-10-10----------|
E-----------------------------------------6--6h8h8-|

G--------------------------------------------------|
D--------------10--10-10-10------------------------|
A--8--8-8-8-8----------------10--10-10-10--9-9-9---|
E--------------------------------------------------|

Almost there ...

Sign in to get your own page with links to favourite songs and more. You are just one click away...

Login with Facebook Login with Google