Log in

One click and you are in

Login with Facebook Login with Google

Why sign up and log in

Guitar Tabs Explorer
The Xx guitar tabs for Finally

Guitar tabs

Finally
The XX
(cover of Finally by Kings Of Tomorrow on BBC Radio 1)

Tabbed by: KK Espada

Correction is welcome.
Verse:
(no guitar until "and you,you,you who make worlds collide"
e|------------------|
B|------------------|
G|--13~-----12~-----|(x2)
D|--14~-----13~-----|
A|------------------|
E|------------------|

Guitar solo:
e|------------------------------------------------------------------------|
B|------------------------------------------------------------------------|
G|-13-13-13-13-----13-13-13-13/15-15\12-12-12-12-----12-12-12-12\10-10/---|(x2)
D|------------14-14-----------------------------13-13---------------------|
A|------------------------------------------------------------------------|
E|------------------------------------------------------------------------|


Verse 2
(Where do we go from here...)


Chorus: no guitar
(So tell me how do you do...)


Chorus again:
e|------------------|
B|------------------|
G|--13~----12~------|
D|--14~----13~------| (x2)
A|------------------|
E|------------------|

Guitar solo:
e|------------------------------------------------------------------------|
B|------------------------------------------------------------------------|
G|-13-13-13-13-----13-13-13-13/15-15\12-12-12-12-----12-12-12-12\10-10/---|(x2)
D|------------14-14-----------------------------13-13---------------------|
A|------------------------------------------------------------------------|
E|------------------------------------------------------------------------|

e|---------------------------------------------------------------|
B|---------------------------------------------------------------|
G|--15-15----15-15----15-15---------15-15-----15-15----15-15-----|(x2)
D|-------14-------14-------14------------12--------12-------12---|
A|---------------------------------------------------------------|
E|---------------------------------------------------------------|

Chorus (no guitar)

Guitar solo:
e|--------------------------------------------------|
B|--------------------------------------------------|
G|--15-15-------15-15-------15-15-------15-15-------|
D|-------14----------14----------12----------12-----|
A|--------------------------------------------------|
E|--------------------------------------------------|
e|--------------------------------------------------|

e|-----------------------------------------------------|
B|-----------------------------------------------------|
G|--15-15-------15-15-------15-15---15-15---15-15------|
D|-------14----------14----------12------12------12----|
A|-----------------------------------------------------|
E|-----------------------------------------------------|
e|-----------------------------------------------------|

e|------------------------------------------------------------------------|
B|------------------------------------------------------------------------|
G|-13-13-13-13-----13-13-13-13/15-15\12-12-12-12-----12-12-12-12\10-10/---|(x2)
D|------------14-14-----------------------------13-13---------------------|
A|------------------------------------------------------------------------|
E|------------------------------------------------------------------------|

e|----------------------------------------------------------------|
B|----------------------------------------------------------------|
G|--15-15----15-15----15-15---------15-15-----15-15----15-15------|(x2)
D|-------14-------14-------14------------12--------12-------12/14~|
A|----------------------------------------------------------------|
E|----------------------------------------------------------------|

End.


| /  slide up
| \  slide down
| h  hammer-on
| p  pull-off
| ~  vibrato
| +  harmonic
| x  Mute note

Almost there ...

Sign in to get your own page with links to favourite songs and more. You are just one click away...

Login with Facebook Login with Google