Log in

One click and you are in

Login with Facebook Login with Google

Why sign up and log in

Guitar Tabs Explorer
The Xx bass tabs for Crystalised

Bass tabs

Tuning: Standard (E A D G)

Title: Crystalised
Album: xx

Intro:

No bass part for the first 4 bars, followed by:

    1  e  +  a  2  e  +  a  3  e  +  a  4  e  +  a     1  e  +  a  2  e  +  a  3  e  +  a  4  e  +  a
G|--------------------------------------------------|--------------------------------------------------|
D|--------------------------------------------------|--------------------------------------9-----------|
A|--------------------------------------------------|--------------------------------------------------|
E|--------------------------------------------------|--------------------------------------------------|


    1  e  +  a  2  e  +  a  3  e  +  a  4  e  +  a     1  e  +  a  2  e  +  a  3  e  +  a  4  e  +  a
G|--------------------------------------------------|--------------------------------------------------|
D|-(9)---------------------------------(9)---/12----|--------------------------------------------------|
A|--7----------------------------------(7)---/10----|--------------------------------------------------|
E|--------------------------------------------------|--------------------------------------------------|


    1  e  +  a  2  e  +  a  3  e  +  a  4  e  +  a     1  e  +  a  2  e  +  a  3  e  +  a  4  e  +  a
G|--------------------------------------------------|--------------------------------------------------|
D|--------------------------------------------------|--------------------------------------------------|
A|--------------------------------------------------|--------------------------------------------------|
E|--------------------------------------------------|--------------------------------------------------|


    1  e  +  a  2  e  +  a  3  e  +  a  4  e  +  a     1  e  +  a  2  e  +  a  3  e  +  a  4  e  +  a
G|--------------------------------------------------|--------------------------------------------------|
D|--------------------------------------------------|--------------------------------------------------|
A|--7--7--7-----7-----7--7--7-----7-----7-----7-----|--7-----7-----7-----7--7--7-----7-----7-----7-----|
E|--------------------------------------------------|--------------------------------------------------|

    1  e  +  a  2  e  +  a  3  e  +  a  4  e  +  a     1  e  +  a  2  e  +  a  3  e  +  a  4  e  +  a
G|--------------------------------------------------|--------------------------------------------------|
D|--------9-----------9-----------9-----------7-----|--------7-----------7-----------7-----7-----------|
A|--------------------------------------------------|--------------------------------------------0-----|
E|--------------------------------------------------|--------------------------------------------------|


    1  e  +  a  2  e  +  a  3  e  +  a  4  e  +  a     1  e  +  a  2  e  +  a  3  e  +  a  4  e  +  a
G|--------------------------------------------------|--------------------------------------------------|
D|--------------------------------------------------|--------------------------------------------------|
A|--7-----7-----7-----7--7--7-----7-----7-----7-----|--7-----7-----7-----7--7--7-----7-----7-----7-----|
E|--------------------------------------------------|--------------------------------------------------|


    1  e  +  a  2  e  +  a  3  e  +  a  4  e  +  a     1  e  +  a  2  e  +  a  3  e  +  a  4  e  +  a
G|--------------------------------------------------|--------------------------------------------------|
D|--------9-----------9-----------9-----------11----|--------11----------11---/12----------12----------|
A|--------------------------------------------------|--------------------------------------------0-----|
E|--------------------------------------------------|--------------------------------------------------|


Verse 1:


    1  e  +  a  2  e  +  a  3  e  +  a  4  e  +  a     1  e  +  a  2  e  +  a  3  e  +  a  4  e  +  a
G|--------------------------------------------------|--------------------------------------------------|
D|--------------------------------------------------|--------------------------------------------------|
A|--7-----7-----7-----7-----7-----7-----------7-----|--7-----7-----7-----7-----7-----7-----------------|
E|--------------------------------------------------|--------------------------------------------------|


    1  e  +  a  2  e  +  a  3  e  +  a  4  e  +  a     1  e  +  a  2  e  +  a  3  e  +  a  4  e  +  a
G|--------------------------------------------------|--------------------------------------------------|
D|--------9-----------9-----------9-----------7-----|--------7-----------7-----------7-----7-----------|
A|--------------------------------------------------|--------------------------------------------0-----|
E|--------------------------------------------------|--------------------------------------------------|


    1  e  +  a  2  e  +  a  3  e  +  a  4  e  +  a     1  e  +  a  2  e  +  a  3  e  +  a  4  e  +  a
G|--------------------------------------------------|--------------------------------------------------|
D|--------------------------------------------------|--------------------------------------------------|
A|--7-----7-----7-----7-----7-----7-----------7-----|--7-----7-----7-----7-----7-----7-----------------|
E|--------------------------------------------------|--------------------------------------------------|


    1  e  +  a  2  e  +  a  3  e  +  a  4  e  +  a     1  e  +  a  2  e  +  a  3  e  +  a  4  e  +  a
G|--------------------------------------------------|--------------------------------------------------|
D|--------9-----------9-----------9-----------11----|--------11----------11---/12----------12----------|
A|--------------------------------------------------|--------------------------------------------0-----|
E|--------------------------------------------------|--------------------------------------------------|


    1  e  +  a  2  e  +  a  3  e  +  a  4  e  +  a     1  e  +  a  2  e  +  a  3  e  +  a  4  e  +  a
G|--------------------------------------------------|--------------------------------------------------|
D|--------------------------------------------------|--------------------------------------------------|
A|--7-----7-----7-----7-----7-----7-----------7-----|--7-----7-----7-----7-----7-----7-----------------|
E|--------------------------------------------------|--------------------------------------------------|


    1  e  +  a  2  e  +  a  3  e  +  a  4  e  +  a     1  e  +  a  2  e  +  a  3  e  +  a  4  e  +  a
G|--------------------------------------------------|--------------------------------------------------|
D|--------9-----------9-----------9-----------7-----|--------7-----------7-----------7-----7-----------|
A|--------------------------------------------------|--------------------------------------------0-----|
E|--------------------------------------------------|--------------------------------------------------|


    1  e  +  a  2  e  +  a  3  e  +  a  4  e  +  a     1  e  +  a  2  e  +  a  3  e  +  a  4  e  +  a
G|--------------------------------------------------|--------------------------------------------------|
D|--------------------------------------------------|--------------------------------------------------|
A|--7-----7-----7-----7-----7-----7-----------7-----|--7-----7-----7-----7-----7-----7-----------------|
E|--------------------------------------------------|--------------------------------------------------|


    1  e  +  a  2  e  +  a  3  e  +  a  4  e  +  a     1  e  +  a  2  e  +  a  3  e  +  a  4  e  +  a
G|--------------------------------------------------|--------------------------------------------------|
D|--------9-----------9-----------9-----------11----|--------11----------11---/12----------12----------|
A|--------------------------------------------------|--------------------------------------------0-----|
E|--------------------------------------------------|--------------------------------------------------|


Pre-Chorus 1:

    1  e  +  a  2  e  +  a  3  e  +  a  4  e  +  a     1  e  +  a  2  e  +  a  3  e  +  a  4  e  +  a
G|--------------------------------------------------|--------------------------------------------------|
D|--------------------------------------------------|--------------------------------------------------|
A|--7-----7-----7-----7-----7-----7-----7-----7-----|--7-----7-----7-----7-----7-----7-----7-----7-----|
E|--------------------------------------------------|--------------------------------------------------|


    1  e  +  a  2  e  +  a  3  e  +  a  4  e  +  a     1  e  +  a  2  e  +  a  3  e  +  a  4  e  +  a
G|--------------------------------------------------|--------------------------------------------------|
D|--------9-----------9-----------9-----------7-----|--------7-----------7-----------7-----7-----------|
A|--------------------------------------------------|--------------------------------------------0-----|
E|--------------------------------------------------|--------------------------------------------------|


    1  e  +  a  2  e  +  a  3  e  +  a  4  e  +  a     1  e  +  a  2  e  +  a  3  e  +  a  4  e  +  a
G|--------------------------------------------------|--------------------------------------------------|
D|--------------------------------------------------|--------------------------------------------------|
A|--7-----7-----7-----7--7--7-----7-----7-----7-----|--7-----7-----7-----7-----7-----7-----7-----7-----|
E|--------------------------------------------------|--------------------------------------------------|


    1  e  +  a  2  e  +  a  3  e  +  a  4  e  +  a     1  e  +  a  2  e  +  a  3  e  +  a  4  e  +  a
G|--------------------------------------------------|--------------------------------------------------|
D|--------9-----------9-----------9-----------11----|--------11----------11---/12----------------------|
A|--------------------------------------------------|--------------------------------------------------|
E|--------------------------------------------------|--------------------------------------------------|


Chorus 1:

    1  e  +  a  2  e  +  a  3  e  +  a  4  e  +  a     1  e  +  a  2  e  +  a  3  e  +  a  4  e  +  a
G|--------------------------------------------------|--------------------------------------------------|
D|--------------------------------------------------|--------------------------------------------------|
A|--------------------------------------------------|--------------------------------------------------|
E|--0-----0-----0-----0-----0-----0-----0-----0-----|--0-----0-----0-----0-----0-----0-----0-----0-----|


    1  e  +  a  2  e  +  a  3  e  +  a  4  e  +  a     1  e  +  a  2  e  +  a  3  e  +  a  4  e  +  a
G|--------------------------------------------------|--------------------------------------------------|
D|--------------------------------------------------|--------------------------------------------------|
A|--------------------------------------------------|--------------------------------------------------|
E|--------7-----------7-----------7-----------5-----|--------5-----------5-----------5-----5-----5-----|


    1  e  +  a  2  e  +  a  3  e  +  a  4  e  +  a     1  e  +  a  2  e  +  a  3  e  +  a  4  e  +  a
G|--------------------------------------------------|--------------------------------------------------|
D|--------------------------------------------------|--------------------------------------------------|
A|--------------------------------------------------|--------------------------------------------------|
E|--0-----0-----0-----0-----0-----0-----0-----0-----|--0-----0-----0-----0-----0-----0-----0-----0-----|


    1  e  +  a  2  e  +  a  3  e  +  a  4  e  +  a     1  e  +  a  2  e  +  a  3  e  +  a  4  e  +  a
G|--------------------------------------------------|--------------------------------------------------|
D|--------------------------------------------------|--------------------------------------------------|
A|--------------------------------------------------|--------------------------------------------------|
E|--------7-----------7-----------7-----------9-----|--------9-----------9----/10----------------------|


Verse 2:

    1  e  +  a  2  e  +  a  3  e  +  a  4  e  +  a     1  e  +  a  2  e  +  a  3  e  +  a  4  e  +  a
G|--------------------------------------------------|--------------------------------------------------|
D|--------------------------------------------------|--------------------------------------------------|
A|--------------------------------------------------|--------------------------------------------------|
E|--------------------------------------------------|--------------------------------------------------|


    1  e  +  a  2  e  +  a  3  e  +  a  4  e  +  a     1  e  +  a  2  e  +  a  3  e  +  a  4  e  +  a
G|--------------------------------------------------|--------------------------------------------------|
D|--------------------------------------------------|--------------------------------------------------|
A|--------------------------------------------------|--------------------------------------------0-----|
E|--------------------------------------------------|--------------------------------------------------|


    1  e  +  a  2  e  +  a  3  e  +  a  4  e  +  a     1  e  +  a  2  e  +  a  3  e  +  a  4  e  +  a
G|--------------------------------------------------|--------------------------------------------------|
D|--------------------------------------------------|--------------------------------------------------|
A|--7-----7-----7-----7--7--7-----7-----7-----7-----|--7-----7-----7-----7--7--7-----7-----7-----7-----|
E|--------------------------------------------------|--------------------------------------------------|


    1  e  +  a  2  e  +  a  3  e  +  a  4  e  +  a     1  e  +  a  2  e  +  a  3  e  +  a  4  e  +  a
G|--------------------------------------------------|--------------------------------------------------|
D|--------9-----------9-----------9-----------11----|--------11----------11---/12----------12----------|
A|--------------------------------------------------|--------------------------------------------0-----|
E|--------------------------------------------------|--------------------------------------------------|


    1  e  +  a  2  e  +  a  3  e  +  a  4  e  +  a     1  e  +  a  2  e  +  a  3  e  +  a  4  e  +  a
G|--------------------------------------------------|--------------------------------------------------|
D|--------------------------------------------------|--------------------------------------------------|
A|--7-----7-----7-----7--7--7-----7-----7-----7-----|--7-----7-----7-----7--7--7-----7-----7-----7-----|
E|--------------------------------------------------|--------------------------------------------------|


    1  e  +  a  2  e  +  a  3  e  +  a  4  e  +  a     1  e  +  a  2  e  +  a  3  e  +  a  4  e  +  a
G|--------------------------------------------------|--------------------------------------------------|
D|--------9-----------9-----------9-----------7-----|--------7-----------7-----------7-----7-----------|
A|--------------------------------------------------|--------------------------------------------0-----|
E|--------------------------------------------------|--------------------------------------------------|


    1  e  +  a  2  e  +  a  3  e  +  a  4  e  +  a     1  e  +  a  2  e  +  a  3  e  +  a  4  e  +  a
G|--------------------------------------------------|--------------------------------------------------|
D|--------------------------------------------------|--------------------------------------------------|
A|--7-----7-----7-----7--7--7-----7-----7-----7-----|--7-----7-----7-----7--7--7-----7-----7-----7-----|
E|--------------------------------------------------|--------------------------------------------------|


    1  e  +  a  2  e  +  a  3  e  +  a  4  e  +  a     1  e  +  a  2  e  +  a  3  e  +  a  4  e  +  a
G|--------------------------------------------------|--------------------------------------------------|
D|--------9-----------9-----------9-----------11----|--------11----------11---/12----------12----------|
A|--------------------------------------------------|--------------------------------------------0-----|
E|--------------------------------------------------|--------------------------------------------------|


Pre-Chorus 2:

    1  e  +  a  2  e  +  a  3  e  +  a  4  e  +  a     1  e  +  a  2  e  +  a  3  e  +  a  4  e  +  a
G|--------------------------------------------------|--------------------------------------------------|
D|--------------------------------------------------|--------------------------------------------------|
A|--7-----7-----7-----7--7--7-----7-----7-----7-----|--7-----7-----7-----7--7--7-----7-----7-----7-----|
E|--------------------------------------------------|--------------------------------------------------|


    1  e  +  a  2  e  +  a  3  e  +  a  4  e  +  a     1  e  +  a  2  e  +  a  3  e  +  a  4  e  +  a
G|--------------------------------------------------|--------------------------------------------------|
D|--------9-----------9-----------9-----------7-----|--------7-----------7-----------7-----7-----------|
A|--------------------------------------------------|--------------------------------------------0-----|
E|--------------------------------------------------|--------------------------------------------------|


    1  e  +  a  2  e  +  a  3  e  +  a  4  e  +  a     1  e  +  a  2  e  +  a  3  e  +  a  4  e  +  a
G|--------------------------------------------------|--------------------------------------------------|
D|--------------------------------------------------|--------------------------------------------------|
A|--7-----7-----7-----7--7--7-----7-----7-----7-----|--7-----7-----7-----7--7--7-----7-----7-----7-----|
E|--------------------------------------------------|--------------------------------------------------|


    1  e  +  a  2  e  +  a  3  e  +  a  4  e  +  a     1  e  +  a  2  e  +  a  3  e  +  a  4  e  +  a
G|--------------------------------------------------|--------------------------------------------------|
D|--------9-----------9-----------9-----------11----|--------11----------11---/12----------------------|
A|--------------------------------------------------|--------------------------------------------------|
E|--------------------------------------------------|--------------------------------------10\---------|


Chorus 2:

    1  e  +  a  2  e  +  a  3  e  +  a  4  e  +  a     1  e  +  a  2  e  +  a  3  e  +  a  4  e  +  a
G|--------------------------------------------------|--------------------------------------------------|
D|--------------------------------------------------|--------------------------------------------------|
A|--------------------------------------------------|--------------------------------------------------|
E|--0-----0-----0-----0-----0-----0-----0-----0-----|--0-----0-----0-----0-----0-----0-----0-----0-----|


    1  e  +  a  2  e  +  a  3  e  +  a  4  e  +  a     1  e  +  a  2  e  +  a  3  e  +  a  4  e  +  a
G|--------------------------------------------------|--------------------------------------------------|
D|--------------------------------------------------|--------------------------------------------------|
A|--------------------------------------------------|--------------------------------------------------|
E|--------7-----------7-----------7-----------5-----|--------5-----------5-----------5--5--5--5--5--5--|


    1  e  +  a  2  e  +  a  3  e  +  a  4  e  +  a     1  e  +  a  2  e  +  a  3  e  +  a  4  e  +  a
G|--------------------------------------------------|--------------------------------------------------|
D|--------------------------------------------------|--------------------------------------------------|
A|--------------------------------------------------|--------------------------------------------------|
E|--0-----0-----0-----0-----0-----0-----0-----0-----|--0-----0-----0-----0-----0-----0-----0-----0-----|


    1  e  +  a  2  e  +  a  3  e  +  a  4  e  +  a     1  e  +  a  2  e  +  a  3  e  +  a  4  e  +  a
G|--------------------------------------------------|--------------------------------------------------|
D|--------------------------------------------------|--------------------------------------------------|
A|--------------------------------------------------|--------------------------------------------------|
E|--------7-----------7-----------7-----------9-----|--------9-----------9----/10----------------------|


Bridge:

Hold the last note into the bridge, but apart from this, no bass part during this section (8 bars).


Outro:

No bass part during this section (9 bars).



***********************************

| \ Slide down
| / Slide up

***********************************

Almost there ...

Sign in to get your own page with links to favourite songs and more. You are just one click away...

Login with Facebook Login with Google