Log in

One click and you are in

Login with Facebook Login with Google

Why sign up and log in

Guitar Tabs Explorer
The Xx guitar tabs for Crystalised accoustic

Guitar tabs with lyrics

than the song actually is. And this is a great song.

I hope you all enjoy. Off course you can mess around with some notes on certain parts
the chorus and the bridge part.

Please note that this tab is based upon the accoustic version (the one from Amsterdan Accoutics)

Tunning: Standard

INTRO:

1st Guitar
e|----------------------------------------------------------------|
B|----------------------------------------------------------------|
G|-------------11-11--11----9-------------------------------------|
D|--9--9-12-12-----------12---12-9--9--12-12-12----------12-9--9--|
A|-----------------------------------------------10---10----------|
E|----------------------------------------------------------------|x2


e|----------------------------------------------------------------|
B|----------------------------------------------------------------|
G|----------------------------------------------------------------|
D|--9-9-9-9-12-12-12-11-11-11-11-11-12-11-12-9-9-9-9-14-14-14-11--|
A|----------------------------------------------------------------|
E|----------------------------------------------------------------|

e|----------------------------------------------------------------|
B|----------------------------------------------------------------|
G|----------------------------------------------------------------|
D|-11-11-11-11-12-11-12-------------------------------------------|
A|----------------------------------------------------------------|
E|----------------------------------------------------------------|x2

2nd Guitar

e|----------------------------------------------------------------|
B|----------------------------------------------------------------|
G|-----11-11-10-9-------------------------------------------------|
D|--9-------------11-11-11-12-12----------------------------------|
A|--------------------------------7---7--7/10--10--10--10--/12----|
E|----------------------------------------------------------------|x2

e|----------------------------------------------------------------|
B|----------------------------------------------------------------|
G|----------------------------------------------------------------|
D|--14---------------------------------9------------7-------------|
A|--14---------------------------------9------------7-------------|
E|--12---------------------------------7------------5-------------|x2


VERSE 1:

Guitar 2: (throughout the entire song)

e|----------------------------------------------------------------|
B|----------------------------------------------------------------|
G|----------------------------------------------------------------|
D|----14-------------------------------9---------7----------------|
A|----14-------------------------------9---------7----------------|
E|----12-------------------------------7---------5----------------|

You applied the pressure to help me crystalize-i-ize
And you've got the faith, that i could bring paradi-i-ise.
I'll forgive and forget before I'm paralyzed.
Do I have to keep up the pace to keep you satisfied? High.

Things have gotten closer to the sun, and I've done things in small doses.
So don't think that I'm pushing you away when you're the one that I've kept closest.

"CHORUS"

e|----------------------------------------------------------------|
B|----------------------------------------------------------------|
G|----------------------------------------------------------------|
D|-----12-9----12-9----12-9----12-9----12-9----12-12-12-12-11-11--|
A|--11------11------11------11------11------11--------------------|
E|----------------------------------------------------------------|
    High.                                    High.
e|----------------------------------------------------------------|
B|----------------------------------------------------------------|
G|----------------------------------------------------------------|
D|--11-11-12-11-12------------------------------------------------|
A|----------------------------------------------------------------|
E|----------------------------------------------------------------|x2


VERSE 2:

Guitar 2

e|----------------------------------------------------------------|
B|----------------------------------------------------------------|
G|----------------------------------------------------------------|
D|--9-9-9-9-12-12-12-11-11-11-11-11-12-11-12-9-9-9-9-14-14-14-11--|
A|----------------------------------------------------------------|
E|----------------------------------------------------------------|

e|----------------------------------------------------------------|
B|----------------------------------------------------------------|
G|----------------------------------------------------------------|
D|-11-11-11-11-12-11-12-------------------------------------------|
A|----------------------------------------------------------------|
E|----------------------------------------------------------------|x2

You don't move slow taking steps in my direction,
The sound resounds, echoes, does it lessen your affection? No.
You say I'm foolish for pushing this aside,
Burn down our home I won't leave alive.


BRIDGE:

Guitar 2:

e|----------------------------------------------------------------|
B|----------------------------------------------------------------|
G|----------------------------------------------------------------|
D|-----12-9----12-9----12-9----12-9----12-9----12-12-12-12-11-11--|
A|--11------11------11------11------11------11--------------------|
E|----------------------------------------------------------------|

e|----------------------------------------------------------------|
B|----------------------------------------------------------------|
G|----------------------------------------------------------------|
D|--11-11-12-11-12------------------------------------------------|
A|----------------------------------------------------------------|
E|----------------------------------------------------------------|x2

Glaciers have melted to the sea, I wish the tide would have take me over.
I've been down on my knees, and you just keep on getting closer.


"CHORUS"

e|----------------------------------------------------------------|
B|----------------------------------------------------------------|
G|----------------------------------------------------------------|
D|-----12-9----12-9----12-9----12-9----12-9----12-12-12-12-11-11--|
A|--11------11------11------11------11------11--------------------|
E|----------------------------------------------------------------|
    High.                                    High.
e|----------------------------------------------------------------|
B|----------------------------------------------------------------|
G|----------------------------------------------------------------|
D|--11-11-12-11-12------------------------------------------------|
A|----------------------------------------------------------------|
E|----------------------------------------------------------------|x2


BRIDGE:

No guitars playing on this part
Knock on guitar for "drum" effect

Both:
(Things have gotten closer to the sun, and I've done things in small doses)
 Glaciers have melted to the sea, I wish the tide would take me over.
(So don't think that I'm pushing you away, when you're the one that I've kept closest)
 I've been down on my knees, and you just keep on getting closer.


OUTRO

Guitar 1 and/or Guitar 2

e|----------------------------------------------------------------|
B|----------------------------------------------------------------|
G|----------------------------------------------------------------|
D|----14-------------------------------9---------7----------------|
A|----14-------------------------------9---------7----------------|
E|----12-------------------------------7---------5----------------|x2

Almost there ...

Sign in to get your own page with links to favourite songs and more. You are just one click away...

Login with Facebook Login with Google