Log in

One click and you are in

Login with Facebook Login with Google

Why sign up and log in

Guitar Tabs Explorer
Xutos E Pontapes guitar tabs for Perfeito vazio

Guitar tabs

Intro:
e|-------------------------------|
B|-------------------------------|
G|99999999-----------------------|
D|99999999 (4x) 77777777---------|
A|77777777------77777777-(4X)----|
E|00000000------55555555---------|
  ........      ........
"As vezes aqui faz frio"
e|4~---------------------------------------------------------------------------|
B|5~---------------------------------------------------------------------------|
G|6~--9h11p9-------------------------------------------------------------------|
D|6~---------------------------------------------------------------------------|
A|4~---------------------------------------------------------------------------|
E|0~---------------------------------------------------------------------------|

"As vezes eu fico imovel"

e|---------------------------------------------------------------------------|
B|/12-10-9-7-5-4-2p0-0~-12-12---/12-10-9-7-5-4-2p0-12-12-10-9-7-5-4-2p0-4b---|
G|---------------------------------------------------------------------------|
D|---------------------------------------------------------------------------|
A|---------------------------------------------------------------------------|
E|---------------------------------------------------------------------------|


Outro:
e|---------------------------------------------------------------------------------------|
B|---------------10~-9~----------------10-9-7--5~----------------10-9-10-12-14~----------|
G|55555555-------x---x--55555555-------x--x-x--x---55555555------x--x-x--x--x----9h11p9--|
D|55555555-(2x)--7~--6~-55555555-(4x)--7--6-4--2~--55555555-(4x)-7--6-7--9--11~----------|
A|77777777--------------77777777-------------------77777777------------------------------|
E|00000000--------------00000000-------------------00000000------------------------------|
  ........              ........                   ........
e|---------------------------------------------------------------------------|
B|/12-10-9-7-5-4-2p0-0~-12-12---/12-10-9-7-5-4-2p0-12-12-10-9-7-5-4-2p0-4b---|
G|---------------------------------------------------------------------------|
D|---------------------------------------------------------------------------|
A|---------------------------------------------------------------------------|
E|---------------------------------------------------------------------------|

e|-----------------------------------------------------------------------------------------------------------|
B|---------------10~-9~-----------10-9-10-9-5~---------------10-9-7--5~----------------10-9-10-12-14~--------|
G|55555555-------x---x--55555555--x--x-x--x-x--55555555------x--x-x--x---55555555------x--x-x--x--x----9h11p9|
D|55555555-(2x)--7~--6~-55555555--7--6-7--6-2~-55555555-(4x)-7--6-4--2~--55555555-(4x)-7--6-7--9--11~--------|
A|77777777--------------77777777---------------77777777------------------77777777----------------------------|
E|00000000--------------00000000---------------00000000------------------00000000----------------------------|
  ........              ........               ........                  ........
                        (--4x--)

e|---------------------------------------------------------------------------------------|
B|/12-10-9-7-5-4-2p0-0~-12-12---/12-10-9-7-5-4-2p0-12-12-10-9-7-5-4-2p0-4b-7b7b----------|
G|--------------------------------------------------------------------------------9------|
D|--------------------------------------------------------------------------------9------|
A|--------------------------------------------------------------------------------7------|
E|--------------------------------------------------------------------------------0------|

************************************

| ~  Vibrato
| h  Hammer-on
| p  Pull-off
| b  Bend
| /  Slide up
| x  Dead note

************************************

Almost there ...

Sign in to get your own page with links to favourite songs and more. You are just one click away...

Login with Facebook Login with Google