Log in

One click and you are in

Login with Facebook Login with Google

Why sign up and log in

Guitar Tabs Explorer
Xutos E Pontapes guitar tabs for Homem do leme

Guitar tabs with lyrics

---------------------------------------------------------
Xutos e Pontapés - Homem do Leme
---------------------------------------------------------


Intro:
    A chord diagramA minorAm           A chord diagramE minorEm           A chord diagramFF            A chord diagramG MajorG
e|-----0-----0------0-----0------1-----1------3--------|
B|-----1-----1------0-----0------1-----1------3--------|
G|-----2-----2------1-----1------2-----2------4--------|
D|--------2--------------------------------------------|
A|--0------------------2------------3------------------|
E|---------------0------------1------------3-----3--4--|
Intro Solo:
             A chord diagramA minorAm               A chord diagramE minorEm                A chord diagramFF
e|---12--12--12----13---7--7--7----8----10--10--10-----|
B|-----------------------------------------------------|
G|-----------------------------------------------------|
D|-----------------------------------------------------|
A|-----------------------------------------------------|
E|-----------------------------------------------------|

                               A chord diagramG MajorG
---8--8----7--7----5--5----3--3/5\3-----|
----------------------------------------|
----------------------------------------|
----------------------------------------|
----------------------------------------|
----------------------------------------|

             A chord diagramA minorAm               A chord diagramE minorEm                A chord diagramFF
e|---12--12--12----13---7--7--7----8----10--10--10-----|
B|-----------------------------------------------------|
G|-----------------------------------------------------|
D|-----------------------------------------------------|
A|-----------------------------------------------------|
E|-----------------------------------------------------|

                             A chord diagramG MajorG
--8--8----7--7----5--5----3--3---------------5----------|
----------------------------------6--6----6-----5p6--5--|
--------------------------------------------------------|
--------------------------------------------------------|
--------------------------------------------------------|
--------------------------------------------------------|

A chord diagramA minorAm               A chord diagramE minorEm
     Sozinho na noite
A chord diagramFF                  A chord diagramG MajorG
     Um barco ruma para onde vai.
A chord diagramA minorAm                A chord diagramE minorEm  A chord diagramFF
     Uma luz no escuro brilha a direito
       A chord diagramG MajorG
     Ofusca as demais


        A chord diagramA minorAm                         A chord diagramE minorEm
     A chord diagramE MajorE mais que uma onda, mais que uma mare
         A chord diagramFF                 A chord diagramG MajorG
     Tentaram prendê-lo impor-lhe uma fé
            A chord diagramA minorAm                  A chord diagramE minorEm
     Mas, vogando à vontade, rompendo a saudade
           A chord diagramFF                       A chord diagramG MajorG
     Vai quem já nada teme, vai o homem do leme


A chord diagramC majorC  A chord diagramFmaj7Fmaj7               A chord diagramC majorC  A chord diagramFmaj7Fmaj7               A chord diagramC majorC
     A chord diagramE MajorE uma vontade de rir, nasce do fundo do ser
A chord diagramFmaj7Fmaj7                  A chord diagramC majorC                     A chord diagramFmaj7Fmaj7
     A chord diagramE MajorE uma vontade de ir, correr o mundo e partir
                           A chord diagramA minorAm
     A chord diagramA majorA vida é sempre a perder


             A chord diagramA minorAm               A chord diagramE minorEm            A chord diagramFF
e|---12--12--12----13----7--7--7----8/10----10----8--8---|
B|-------------------------------------------------------|
G|-------------------------------------------------------|
D|-------------------------------------------------------|
A|-------------------------------------------------------|
E|-------------------------------------------------------|

            A chord diagramG MajorG
---7--7----5\3--3-------|
------------------------|
------------------------|
------------------------|
------------------------|
------------------------|

             A chord diagramA minorAm               A chord diagramE minorEm                A chord diagramFF
e|---12--12--12----10---7--7--7----8----10--10--10-----|
B|-----------------------------------------------------|
G|-----------------------------------------------------|
D|-----------------------------------------------------|
A|-----------------------------------------------------|
E|-----------------------------------------------------|

                          A chord diagramG MajorG                          A chord diagramA minorAm
-8--8---7--7---5--5----3--3--------------------------5--|
-------------------------------6--6----5--5--3--1----5--|
-----------------------------------------------------5--|
-----------------------------------------------------7--|
-----------------------------------------------------7--|
-----------------------------------------------------5--|


A chord diagramA minorAm               A chord diagramE minorEm
     No fundo do mar
A chord diagramFF                         A chord diagramG MajorG
     Jazem os outros, os que lá ficaram
A chord diagramA minorAm              A chord diagramE minorEm
     A chord diagramE minorEm dias cinzentos
A chord diagramFF                    A chord diagramG MajorG
     Descanso eterno lá encontraram


        A chord diagramA minorAm                         A chord diagramE minorEm
     A chord diagramE MajorE mais que uma onda, mais que uma mare
         A chord diagramFF                 A chord diagramG MajorG
     Tentaram prendê-lo impor-lhe uma fé
            A chord diagramA minorAm                  A chord diagramE minorEm
     Mas, vogando à vontade, rompendo a saudade
           A chord diagramFF                      A chord diagramG MajorG
     Vai quem já nada teme, vai o homem do leme


A chord diagramC majorC  A chord diagramFmaj7Fmaj7               A chord diagramC majorC  A chord diagramFmaj7Fmaj7               A chord diagramC majorC
     A chord diagramE MajorE uma vontade de rir, nasce do fundo do ser
A chord diagramFmaj7Fmaj7                  A chord diagramC majorC                     A chord diagramFmaj7Fmaj7
     A chord diagramE MajorE uma vontade de ir, correr o mundo e partir
                           A chord diagramA minorAm
     A chord diagramA majorA vida é sempre a perder


             A chord diagramA minorAm               A chord diagramE minorEm         A chord diagramFF
e|---12--12--12----13---7--7--7----8-----10----8--8--|
B|---------------------------------------------------|
G|---------------------------------------------------|
D|---------------------------------------------------|
A|---------------------------------------------------|
E|---------------------------------------------------|

                     A chord diagramG MajorG
--7--7----5--5----3--3-------------------|
------------------------6--6--5--5--3----|
-----------------------------------------|
-----------------------------------------|
-----------------------------------------|
-----------------------------------------|

             A chord diagramA minorAm               A chord diagramE minorEm                A chord diagramFF
e|---12--12--12----13---7--7--7----8----15--15--15-----|
B|-----------------------------------------------------|
G|-----------------------------------------------------|
D|-----------------------------------------------------|
A|-----------------------------------------------------|
E|-----------------------------------------------------|

                             A chord diagramG MajorG
--13--13----12--12----10--10----8--8----7--7----5--5---|
-------------------------------------------------------|
-------------------------------------------------------|
-------------------------------------------------------|
-------------------------------------------------------|
-------------------------------------------------------|

---1/3----0---------|
--------------------|
--------------------|
--------------------|
--------------------|
--------------------|


A chord diagramA minorAm                A chord diagramE minorEm
     No fundo horizonte
A chord diagramFF                     A chord diagramG MajorG
     Sopra o murmúrio para onde vai
A chord diagramA minorAm               A chord diagramE minorEm
     No fundo do tempo
A chord diagramFF                      A chord diagramG MajorG
     Foge o futuro, é tarde demais


A chord diagramC majorC  A chord diagramFmaj7Fmaj7               A chord diagramC majorC  A chord diagramFmaj7Fmaj7               A chord diagramC majorC
     A chord diagramE MajorE uma vontade de rir, nasce do fundo do ser
A chord diagramFmaj7Fmaj7                  A chord diagramC majorC                     A chord diagramFmaj7Fmaj7
     A chord diagramE MajorE uma vontade de ir, correr o mundo e partir
                           A chord diagramA minorAm
     A chord diagramA majorA vida é sempre a perder


A chord diagramC majorC  A chord diagramFmaj7Fmaj7               A chord diagramC majorC  A chord diagramFmaj7Fmaj7               A chord diagramC majorC
     A chord diagramE MajorE uma vontade de rir, nasce do fundo do ser

A chord diagramFmaj7Fmaj7      A chord diagramC majorC        A chord diagramFmaj7Fmaj7         A chord diagramA minorAm

- gonza -

Almost there ...

Sign in to get your own page with links to favourite songs and more. You are just one click away...

Login with Facebook Login with Google