Log in

One click and you are in

Login with Facebook Login with Google

Why sign up and log in

Guitar Tabs Explorer
Xutos And Pontapes bass tabs for Has de ver

Bass tabs

ARTIST:XUTOS E PONTAPÉS
MUSIC: HÁS DE VER


Riff 1
E-3-3--------------|
A------5-5-7-7-3-3-|
D------------------|
G------------------|
Riff 2:
E-5-5-5-5------------5-5-5-5------------|
A----------5-5-5-5--------------5-5-5-5-|
D---------------------------------------|
G---------------------------------------|


Riff 3:
E-3-3-3-3-5-5-5-5-|
A-----------------|
D-----------------|
G-----------------|

Riff4:
E-----------5-5-5-5-|
A-3-3-3-3-----------|
D-------------------|
G-------------------|


Riff 5:
E-----------5-5-5-5-3-3-3-3-3-3-3-3-|
A-3-3-3-3---------------------------|
D-----------------------------------|
G-----------------------------------|


Riff 1 8x (00:00)

Riff 2 2x (00:46)

Riff 1 8x (00:50)

Riff 2 2x (01:24)

Riff 1 4x (01:30)

Riff 3 1x (01:40)

Riff 11 x (01:44)

Riff 3 1x (01:46)

Riff 4 1x (01:49)

Riff 1 8x (01:52)

Riff 3 2x (02:06)

Riff 3 2x (02:34)

Riff 1 4x (02:40)

Riff 3 1x (02:50)

Riff 1 1x (02:53)

Riff 3 1x (02:56)

Riff 3 1x (03:02)

Riff 1 1x (03:09)

Riff 5 1x (03:16)

Riff 6 1x (03:26)

Almost there ...

Sign in to get your own page with links to favourite songs and more. You are just one click away...

Login with Facebook Login with Google