Log in

One click and you are in

Login with Facebook Login with Google

Why sign up and log in

Guitar Tabs Explorer
Xtc guitar tabs for Then she appeared

Guitar tabs

APPEARED.TAB

This TAB transcription was created using TAB MASTER version 1.0
If you enjoy using this program, please consider telling the author
about it: Ofir Zwebner, e-mail: ofirz1@ccsg.tau.ac.il
                    snail-mail: Ehoud 10, Tel Aviv, 69936, Israel

This program is freeware, but it took me some work to make it, so
your financial contribution is welcome.

--------------------------------------------------------------------

  Tab to XTC's "Then She Appeared," as clumsily arranged by James Poulakos
for solo guitar performance. See lyrics below.

  [repeat X 4 for each bar] 1 bar intro, then 8 bars per verse,
e:-------5--------5--------5-|--------------------------------|
B:----3--------0--------2----|--------------------------------|
G:-2--------2----------------|--etc....-----------------------|
D:---------------------------|--------------------------------|
A:---------------------------|--------------------------------|
E:---------------------------|--------------------------------|
  Then she appeared...               ...


   but on last bar:....]
e:-----------------|--------5-----------5---------|
B:-----------------|-----3----------0------2---0--|
G:--etc.....-------|-2----------2-----------------|
D:-----------------|------------------------------|
A:-----------------|------------------------------|
E:-----------------|------------------------------|
  half-open shell         ......

   [Bbdimadd9-thingy chord ]
   [2 bars of straight 8th note riddim]
e:-r(3)--------------------------------|
B:-r(3)--------------------------------|
G:-r(3)--------------------------------|
D:-r(2)--------------------------------|
A:-r(1)--------------------------------|
E:-------------------------------------|
    little ...


   [G]  [D/F#]  [Em]      [A]
   [open 8th note strums]
e:-------------|-----------------|
B:-------------|-----------------|
G:-------------|-----------------|
D:-------------|-----------------|
A:-------------|-----------------|
E:-------------|-----------------|
  Flying w/my   ...


  [4 more bars of verse pattern]
e:--------5-----------5-------5-|
B:----3-----------0-------2-----|
G:2-----------2-----------------|
D:------------------------------|  etc.
A:------------------------------|
E:------------------------------|
   Cherubim cheered...             ...


  [D]
  [ 1-bar transition to chorus]
e:--------------|
B:--------------|
G:--------------|
D:----0---------|
A:--------4---2-|
E:--------------|


  [A]
  [chorus]
e:---------|--------------------------------------------------------------|
B:---------|-------4---------------4---------------4---------------4------|
G:---------|---4-------4-------4-------4-------4-------4-------4-------4--|
D:---------|--------------------------------------------------------------|
A:---------|2--------------0----------------------------------------------|
E:---------|-------------------------------4---------------2--------------|
[blahblah]...clearest      ...


  [E]             [Esus4][E]         [Asus4] [A] [Asus2] [A]

e:----------------------------------|-----------------------|
B:----------------------------------|-----------------------|
G:----------------------------------|-----------------------|
D:----------------------------------|-----------------------|
A:----------------------------------|-----------------------|
E:----------------------------------|-----------------------|
  suddenly just changed ...


  [then 2 bars of verse pattern before next verse]
e:-------------------------------------------------|
B:-------------------------------------------------|
G:-------------------------------------------------|
D:-------------------------------------------------|
A:-------------------------------------------------|
E:-------------------------------------------------|
   eyes.....


Verse 1:


Verse 2:

Chorus 1:

Verse 3:

Chorus 2:
Fade out repeats "Then she appeared..." cascaded with "Out of nowhere..."

Hope this isn't too sloppy, and that XTC fans enjoy it. Come on, fans,
I know XTC is hard as hell to tab but please, join in & add something....

Almost there ...

Sign in to get your own page with links to favourite songs and more. You are just one click away...

Login with Facebook Login with Google