Log in

One click and you are in

Login with Facebook Login with Google

Why sign up and log in

Guitar Tabs Explorer
Xtc bass tabs for The somnambulist

Bass tabs

Tuning: Standard (E A D G)

Difficulty: Novice


Intro:
(00:09)
G|-----2-5----|--------|-----2-5----|--------|
D|-0-3--------|--------|-0-3--------|--------|
A|------------|--------|------------|--------|
E|------------|--------|------------|--------|

G|-----2-5----|--------|-----2-5----|--------6|
D|-0-3--------|--------|-0-3--------|---------|
A|------------|--------|------------|---------|
E|------------|--------|------------|---------|

G|-7---------|--------5|-7---------|--------|
D|----8-8----|---------|----8-8----|--------|
A|-----------|---------|-----------|--------|
E|-----------|---------|-----------|--------|


Verse 1:
G|-----2-5----|--------|-----2-5----|--------|
D|-0-3--------|--------|-0-3--------|--------|
A|------------|--------|------------|--------|
E|------------|--------|------------|--------|

G|-----2-5----|--------|-----2-5----|--------6|
D|-0-3--------|--------|-0-3--------|---------|
A|------------|--------|------------|---------|
E|------------|--------|------------|---------|

G|-7---------|--------5|-7---------|--------|
D|----8-8----|---------|----8-8----|--------|
A|-----------|---------|-----------|--------|
E|-----------|---------|-----------|--------|

Verse 2:
G|-----2-5----|--------|-----2-5----|--------|
D|-0-3--------|--------|-0-3--------|--------|
A|------------|--------|------------|--------|
E|------------|--------|------------|--------|

G|-----2-5----|--------|-----2-5----|--------6|
D|-0-3--------|--------|-0-3--------|---------|
A|------------|--------|------------|---------|
E|------------|--------|------------|---------|

G|-7---------|--------5|-7---------|--------|
D|----8-8----|---------|----8-8----|--------|
A|-----------|---------|-----------|--------|
E|-----------|---------|-----------|--------|


Verse 3:
G|-----2-5----|--------|-----2-5----|--------|
D|-0-3--------|--------|-0-3--------|--------|
A|------------|--------|------------|--------|
E|------------|--------|------------|--------|

G|-----2-5----|--------|-----2-5----|--------6|
D|-0-3--------|--------|-0-3--------|---------|
A|------------|--------|------------|---------|
E|------------|--------|------------|---------|

G|-7---------|--------5|-7---------|--------|
D|----8-8----|---------|----8-8----|--------|
A|-----------|---------|-----------|--------|
E|-----------|---------|-----------|--------|


Outro:
G|-----2-5----|--------|-----2-5----|--------|
D|-0-3--------|--------|-0-3--------|--------| --|
A|------------|--------|------------|--------|   |
E|------------|--------|------------|--------|   |
                                                 |
G|-----2-5----|--------|-----2-5----|--------6|  |
D|-0-3--------|--------|-0-3--------|---------|  | (x5)
A|------------|--------|------------|---------|  |
E|------------|--------|------------|---------|  |
                                                 |
G|-7---------|--------5|-7---------|--------|    |
D|----8-8----|---------|----8-8----|--------|    |
A|-----------|---------|-----------|--------| ---|
E|-----------|---------|-----------|--------|

Almost there ...

Sign in to get your own page with links to favourite songs and more. You are just one click away...

Login with Facebook Login with Google