Search tabs and chords

Search for song, artist or band

Log in

One click and you are in

Login with Facebook Login with Google

Why sign up and log in

Guitar Tabs Explorer
Xtc bass tabs for Real by reel

Bass tabs

Album: Drums and Wires

Tabbed by Leo Chiurco

Intro:
G|---------------------------------|---------------------------------|
D|-4---4-4-2-----------------------|---------------------------------|
A|-------------5---4---2---5-------|---------------------------------|\
E|-----------------------------3~--|---------------------------------| \
   1 + + + 2 + + + 3 + + + 4 + + +   1 + + + 2 + + + 3 + + + 4 + + +    \
                                                                         (x2)
G|-9---9-9-7-----------------------|---------------------------------|  /
D|-------------10--9---7---10------|---------------------------------| /
A|-----------------------------8~--|-------------------------\-------|/
E|---------------------------------|---------------------------------|
   1 + + + 2 + + + 3 + + + 4 + + +   1 + + + 2 + + + 3 + + + 4 + + +

G|---------------------------------|---------------------------------|
D|---------------------------------|-x---3.--3.--3.--1-------0-------|
A|-3.--3.--3.--3.--1-------0-------|---------------------------------|
E|---------------------------------|---------------------------------|
   1 + + + 2 + + + 3 + + + 4 + + +   1 + + + 2 + + + 3 + + + 4 + + +

G|---------------------------------|---------------------------------|
D|---------------------------------|-----3.--3.--3.--1.------0.------|
A|-3.--3.--3.--3.------1.------0.--|---------------------------------| (x2)
E|---------------------------------|---------------------------------|
   1 + + + 2 + + + 3 + + + 4 + + +   1 + + + 2 + + + 3 + + + 4 + + +

G|---------------------------------|---------------------------------|
D|---------------------------------|-x---3.--x---3.--1.------3.------|
A|-3.--3.--3.--3.--1-------0-------|---------------------------------|
E|---------------------------------|---------------------------------|
   1 + + + 2 + + + 3 + + + 4 + + +   1 + + + 2 + + + 3 + + + 4 + + +

Verse 1: "In this secret time ..."
G|---------------------------------|---------------------------------|
D|---------------------------------|-x---3.--3.--3.--1-------3-------|
A|-3.--3.--3.--3.--1-------0-------|---------------------------------|
E|---------------------------------|---------------------------------|
   1 + + + 2 + + + 3 + + + 4 + + +   1 + + + 2 + + + 3 + + + 4 + + +

G|---------------------------------|---------------------------------|
D|---------------------------------|-----3.------1.------0---1-------|
A|-3.--3.--3.--3.------1.------0.--|---------------------------------|
E|---------------------------------|---------------------------------|
   1 + + + 2 + + + 3 + + + 4 + + +   1 + + + 2 + + + 3 + + + 4 + + +

G|---------------------------------|---------------------------------|
D|---------------------------------|-x---3.------1---0---1---0-------|
A|-3.--3.--3.--3.--1-------0-------|---------------------------------|
E|---------------------------------|---------------------------------|
   1 + + + 2 + + + 3 + + + 4 + + +   1 + + + 2 + + + 3 + + + 4 + + +

G|---------------------------------|---------------------------------|
D|---------------------------------|-x---3.--3.--3.1h3-------3-------|
A|-3.--3.------1.------0-h-1-------|-----------------------------0---|
E|---------------------------------|---------------------------------|
   1 + + + 2 + + + 3 + + + 4 + + +   1 + + + 2 + + + 3 + + + 4 + + +

Pre-chorus 1: "They can film you in bed ..."
G|---------------------------------|---------------------------------|
D|-----------------4-----------4---|-5.--5.--5.--5.------------------|
A|-5.--5.--5.--5.------------------|-----------------3.------3.------|
E|---------------------------------|---------------------------------|
   1 + + + 2 + + + 3 + + + 4 + + +   1 + + + 2 + + + 3 + + + 4 + + +

G|---------------------------------|---------------------------------|
D|-----------------4-----------4---|-5.--5.------5.------------------|
A|-5.--5.--5.--5.------------------|-----------------3.------3.------|
E|---------------------------------|---------------------------------|
   1 + + + 2 + + + 3 + + + 4 + + +   1 + + + 2 + + + 3 + + + 4 + + +

G|---------------------------------|---------------------------------|
D|-----------------4-----------4---|-5.--5.--5.--5.------------------|
A|-5.--5.--5.--5.------------------|-----------------3.------3\------|
E|---------------------------------|---------------------------------|
   1 + + + 2 + + + 3 + + + 4 + + +   1 + + + 2 + + + 3 + + + 4 + + +

Chorus 1: "Real by reel ..."
G|---------------------------------|---------------------------------|
D|-3.--3.--3.--3.------------------|-3.--3.------3.------------------|
A|-----------------1-----------1---|-----------------1-----------1---|
E|---------------------------------|---------------------------------|
   1 + + + 2 + + + 3 + + + 4 + + +   1 + + + 2 + + + 3 + + + 4 + + +

G|---------------------------------|---------------------------------|
D|-3.--3.------3.------------------|-1---1---1---1-------------------|
A|-----------------3.------3.--3.--|-----------------1.------0.------|
E|---------------------------------|---------------------------------|
   1 + + + 2 + + + 3 + + + 4 + + +   1 + + + 2 + + + 3 + + + 4 + + +

G|---------------------------------|---------------------------------|
D|-3.--3.------3.------------------|-3.--3.--3.--3.------------------|
A|-----------------1-----------1---|-----------------1-----------1---|
E|---------------------------------|---------------------------------|
   1 + + + 2 + + + 3 + + + 4 + + +   1 + + + 2 + + + 3 + + + 4 + + +

G|---------------------------------|---------------------------------|
D|-3-----------3.------------------|-1.--1.--1.--1.------------------|
A|-----------------3.--3.------3.--|-----------------1.------1---1---|
E|---------------------------------|---------------------------------|
   1 + + + 2 + + + 3 + + + 4 + + +   1 + + + 2 + + + 3 + + + 4 + + +

G|---------------------------------|---------------------------------|
D|-3.--3.--3.--3.------------------|-3-------3.----------------------|
A|-----------------1-----------1---|-------------------------3/----\-| (x2)
E|---------------------------------|---------------------------------|
   1 + + + 2 + + + 3 + + + 4 + + +   1 + + + 2 + + + 3 + + + 4 + + +

Pre-verse 1:
G|---------------------------------|---------------------------------|
D|---------------------------------|-x---3.------3.--1-------0h1p0---|
A|-3.--3.--3.--3.--1-------0-------|---------------------------------|
E|---------------------------------|---------------------------------|
   1 + + + 2 + + + 3 + + + 4 + + +   1 + + + 2 + + + 3 + + + 4 + + +

G|---------------------------------|---------------------------------|
D|---------------------------------|-----3.--3.--3.--1-------0-------|
A|-3-----------1.------0.------0h1-|---------------------------------|
E|---------------------------------|---------------------------------|
   1 + + + 2 + + + 3 + + + 4 + + +   1 + + + 2 + + + 3 + + + 4 + + +

G|---------------------------------|---------------------------------|
D|---------------------------------|---1h3.------1---3-------1-------|
A|-x---x---3.--3.--1-------0-------|---------------------------------|
E|---------------------------------|---------------------------------|
   1 + + + 2 + + + 3 + + + 4 + + +   1 + + + 2 + + + 3 + + + 4 + + +

G|---------------------------------|---------------------------------|
D|---------------------------------|-x---3.------1.------0.------1.--|
A|-3.--3.--3.--3.--1-------0-------|---------------------------------|
E|---------------------------------|---------------------------------|
   1 + + + 2 + + + 3 + + + 4 + + +   1 + + + 2 + + + 3 + + + 4 + + +

Verse 2: "In this hidden time ..."
G|---------------------------------|---------------------------------|
D|---------------------------------|-----3.--3.--3.--1-------0-------|
A|-3.--3.--x---1.------0.------1.--|---------------------------------|
E|---------------------------------|---------------------------------|
   1 + + + 2 + + + 3 + + + 4 + + +   1 + + + 2 + + + 3 + + + 4 + + +

G|---------------------------------|---------------------------------|
D|---------------------------------|-x---3.------1.------0---1-------|
A|-3.--3.--3.--3.--1.------0.------|---------------------------------|
E|---------------------------------|---------------------------------|
   1 + + + 2 + + + 3 + + + 4 + + +   1 + + + 2 + + + 3 + + + 4 + + +

G|---------------------------------|---------------------------------|
D|---------------------------------|-x---3.--3.--3.--1.------0.------|
A|-3.--3.------3.--1.------0.------|---------------------------------|
E|---------------------------------|---------------------------------|
   1 + + + 2 + + + 3 + + + 4 + + +   1 + + + 2 + + + 3 + + + 4 + + +

G|---------------------------------|---------------------------------|
D|---------------------------------|-x---3.--3.--3.--3-------3-------|
A|-3.--3.--3.--3.--1-------0.------|---------------------------------|
E|---------------------------------|---------------------------------|
   1 + + + 2 + + + 3 + + + 4 + + +   1 + + + 2 + + + 3 + + + 4 + + +

Pre-chorus 2: "They can film you at work ..."
G|---------------------------------|---------------------------------|
D|-----------------4-----------4---|-5.--5.------5.------------------|
A|-5.--5.--5.--5.------------------|-----------------3.------3.------|
E|---------------------------------|---------------------------------|
   1 + + + 2 + + + 3 + + + 4 + + +   1 + + + 2 + + + 3 + + + 4 + + +

G|---------------------------------|---------------------------------|
D|-----------------4-----------4---|-5.--5.--5.--5.------------------|
A|-5.--5.--5.--5.------------------|-----------------3.------3.------|
E|---------------------------------|---------------------------------|
   1 + + + 2 + + + 3 + + + 4 + + +   1 + + + 2 + + + 3 + + + 4 + + +

G|---------------------------------|---------------------------------|
D|-----------------4.--4.--4.--4.--|-5.--5.--5.--5.------------------|
A|-5.--5.--5.--5.------------------|-----------------3.------3\------|
E|---------------------------------|---------------------------------|
   1 + + + 2 + + + 3 + + + 4 + + +   1 + + + 2 + + + 3 + + + 4 + + +

Chorus 2: "Real by reel ..."
G|---------------------------------|---------------------------------|
D|-3.--3.--3.--3.------------------|-3.--3.--3.--3.------------------|
A|-----------------1-----------1---|-----------------1-----------1---|
E|---------------------------------|---------------------------------|
   1 + + + 2 + + + 3 + + + 4 + + +   1 + + + 2 + + + 3 + + + 4 + + +

G|---------------------------------|---------------------------------|
D|-3-----------3.------------------|-1.--1.--1.--1.------------------|
A|-----------------3.--3.--3.--3.--|-----------------1.------0.------|
E|---------------------------------|---------------------------------|
   1 + + + 2 + + + 3 + + + 4 + + +   1 + + + 2 + + + 3 + + + 4 + + +

G|---------------------------------|---------------------------------|
D|-3-----------3-------------------|-3.--3.------3.------------------|
A|-----------------1-----------1---|-----------------1-----------1---|
E|---------------------------------|---------------------------------|
   1 + + + 2 + + + 3 + + + 4 + + +   1 + + + 2 + + + 3 + + + 4 + + +

G|---------------------------------|---------------------------------|
D|-3.--3.--3.--3.------------------|-1.--1.--1.--1.------------------|
A|-----------------3-----------3.--|-----------------1.------1---1---|
E|---------------------------------|---------------------------------|
   1 + + + 2 + + + 3 + + + 4 + + +   1 + + + 2 + + + 3 + + + 4 + + +

G|---------------------------------|---------------------------------|
D|-3-----------3.------------------|-3-------3.----------------------|
A|-----------------1-----------1---|-------------------------3/----\-|
E|---------------------------------|---------------------------------|
   1 + + + 2 + + + 3 + + + 4 + + +   1 + + + 2 + + + 3 + + + 4 + + +

G|---------------------------------|---------------------------------|
D|-3.--3.--3.--3.------------------|-3-------3---/---12------\-------|
A|-----------------1-----------1---|---------------------------------|
E|---------------------------------|---------------------------------|
   1 + + + 2 + + + 3 + + + 4 + + +   1 + + + 2 + + + 3 + + + 4 + + +

Bridge: "Now I lay me down to sleep ..."
G|---------------------------------|---------------------------------|
D|---------------------------------|---------------------------------|
A|-5.--5.--5.--5.--5.--5.--5.--5/--|-12.-12.-12.-12.-12.-12.-12.-12\-|
E|---------------------------------|---------------------------------|
   1 + + + 2 + + + 3 + + + 4 + + +   1 + + + 2 + + + 3 + + + 4 + + +

G|---------------------------------|---------------------------------|
D|---------------------------------|---------------------------------|
A|-3.--3.--3.--3.--3.--3.--3.--3.--|-1.--1.--1.--1.--1.--1.--1.--1.--|
E|---------------------------------|---------------------------------|
   1 + + + 2 + + + 3 + + + 4 + + +   1 + + + 2 + + + 3 + + + 4 + + +

G|---------------------------------|---------------------------------|
D|---------------------------------|---------------------------------|
A|-5.--5.--5.--5.--5.--5.--5.--5/--|-12.-12.-12.-12.-12.-12.-12.-12\-|
E|---------------------------------|---------------------------------|
   1 + + + 2 + + + 3 + + + 4 + + +   1 + + + 2 + + + 3 + + + 4 + + +

G|---------------------------------|---------------------------------|
D|-----------------------------3/--|-15------15--15~-----------------|
A|-1.--1.--1.--1.--1.--1.--1.------|---------------------------------|
E|---------------------------------|---------------------------------|
   1 + + + 2 + + + 3 + + + 4 + + +   1 + + + 2 + + + 3 + + + 4 + + +

G|---------------------------------|
D|---------------------------------|
A|-----------------------------5---|
E|---------------------------------|
   1 + + + 2 + + + 3 + + + 4 + + +

Solo:
G|---------------------------------|---------------------------------|
D|---------------------------------|-----3.--3.--3.--1-------0h1-----|
A|-3.--3.--3.--3.--1-------1h3-1---|---------------------------------|
E|---------------------------------|---------------------------------|
   1 + + + 2 + + + 3 + + + 4 + + +   1 + + + 2 + + + 3 + + + 4 + + +

G|---------------------------------|---------------------------------|
D|---------------------------------|-3.--3.------3---1-------0-------|
A|-3.--3.--3.--3.--1-------0-------|---------------------------------|
E|---------------------------------|---------------------------------|
   1 + + + 2 + + + 3 + + + 4 + + +   1 + + + 2 + + + 3 + + + 4 + + +

G|---------------------------------|---------------------------------|
D|---------------------------------|-----3.------1.------0---1-------|
A|-3.--3.--3.--3.--1-------0-------|---------------------------------|
E|---------------------------------|---------------------------------|
   1 + + + 2 + + + 3 + + + 4 + + +   1 + + + 2 + + + 3 + + + 4 + + +

G|---------------------------------|---------------------------------|
D|---------------------------------|-----3.--------------------------|
A|-3.--3.--3.------1.------0-------|-----------------6.------6\------|
E|---------------------------------|---------------------------------|
   1 + + + 2 + + + 3 + + + 4 + + +   1 + + + 2 + + + 3 + + + 4 + + +

Pre-chorus 3: "They can film you in bed ..."
G|---------------------------------|---------------------------------|
D|-----------------4-----------4---|-5.--5.--5.--5.------------------|
A|-5.--5.--5.--5.------------------|-----------------3.------3.------|
E|---------------------------------|---------------------------------|
   1 + + + 2 + + + 3 + + + 4 + + +   1 + + + 2 + + + 3 + + + 4 + + +

G|---------------------------------|---------------------------------|
D|-----------------4.--4.--4.--4.--|-5.------5.----------------------|
A|-5.--5.--5.--5.------------------|-----------------3.------3-------|
E|---------------------------------|---------------------------------|
   1 + + + 2 + + + 3 + + + 4 + + +   1 + + + 2 + + + 3 + + + 4 + + +

G|---------------------------------|---------------------------------|
D|-----------------4-----------4---|-5.--5.--5.--5.------------------|
A|-5.--5.--5.--5.------------------|-----------------3.------3/----\-|
E|---------------------------------|---------------------------------|
   1 + + + 2 + + + 3 + + + 4 + + +   1 + + + 2 + + + 3 + + + 4 + + +

Chorus 3: "Real by reel ..."
G|---------------------------------|---------------------------------|
D|-3.--3.--3.--3.------------------|-3.--3.--3.--3.------------------|
A|-----------------1-----------1---|-----------------1-----------1---|
E|---------------------------------|---------------------------------|
   1 + + + 2 + + + 3 + + + 4 + + +   1 + + + 2 + + + 3 + + + 4 + + +

G|---------------------------------|---------------------------------|
D|-3.--3.--3.--3.------------------|-1---1---1---1-------------------|
A|-----------------3.------3-------|-----------------1-------1---1---|
E|---------------------------------|---------------------------------|
   1 + + + 2 + + + 3 + + + 4 + + +   1 + + + 2 + + + 3 + + + 4 + + +

G|---------------------------------|---------------------------------|
D|-3-----------3-------------------|-3.--3.--3.--3.------------------|
A|-----------------1-----------1---|-----------------1-----------1---|
E|---------------------------------|---------------------------------|
   1 + + + 2 + + + 3 + + + 4 + + +   1 + + + 2 + + + 3 + + + 4 + + +

G|---------------------------------|---------------------------------|
D|-3-----------3.------------------|-1-------1.--1.------------------|
A|-----------------3-----------3.--|-----------------1.----------1---|
E|---------------------------------|---------------------------------|
   1 + + + 2 + + + 3 + + + 4 + + +   1 + + + 2 + + + 3 + + + 4 + + +

G|---------------------------------|---------------------------------|
D|-3-----------3.------------------|-3-------3.----------------------|
A|-----------------1-----------1---|-------------------------3/----\-|
E|---------------------------------|---------------------------------|
   1 + + + 2 + + + 3 + + + 4 + + +   1 + + + 2 + + + 3 + + + 4 + + +

G|---------------------------------|---------------------------------|
D|-3.--3.--3.--3.------------------|-3-------3-----------------------|
A|-----------------1-----------1---|-------------------------3/----\-|
E|---------------------------------|---------------------------------|
   1 + + + 2 + + + 3 + + + 4 + + +   1 + + + 2 + + + 3 + + + 4 + + +

G|---------------------------------|---------------------------------|
D|-3.--3.--3.--3.------------------|-3.--3.--3.----------------------|
A|-----------------1-----------1---|-------------------------3/----\-|
E|---------------------------------|---------------------------------|
   1 + + + 2 + + + 3 + + + 4 + + +   1 + + + 2 + + + 3 + + + 4 + + +

G|---------------------------------|---------------------------------|
D|-3.--3.--3.--3.------------------|-3.--3~----------3-------3-------|
A|-----------------1-----------1---|-----------------------------0---|
E|---------------------------------|---------------------------------|
   1 + + + 2 + + + 3 + + + 4 + + +   1 + + + 2 + + + 3 + + + 4 + + +

Outro:
G|---------------------------------|---------------------------------|
D|---------------------------------|-----3.------1.------0---1-------|
A|-3.--3.--3.--3.--1------/3-------|---------------------------------|
E|---------------------------------|---------------------------------|
   1 + + + 2 + + + 3 + + + 4 + + +   1 + + + 2 + + + 3 + + + 4 + + +

G|---------------------------------|---------------------------------|
D|---------------------------------|-----3---1---0---0h1-----3-------|
A|-3.--3.--3.--3.--1-------0-------|---------------------------------|
E|---------------------------------|---------------------------------|
   1 + + + 2 + + + 3 + + + 4 + + +   1 + + + 2 + + + 3 + + + 4 + + +

G|---------------------------------|---------------------------------|
D|---------------------------------|-----3.--3.--3.--3.--1---0-------|
A|-3.--3.------1.------0---1-------|---------------------------------|
E|---------------------------------|---------------------------------|
   1 + + + 2 + + + 3 + + + 4 + + +   1 + + + 2 + + + 3 + + + 4 + + +

G|---------------------------------|---------------------------------|
D|---------------------------------|-3-------1---0-------------------|
A|-3.--3.--3.--3.--1.------0.------|-----------------3~--------------|
E|---------------------------------|---------------------------------|
   1 + + + 2 + + + 3 + + + 4 + + +   1 + + + 2 + + + 3 + + + 4 + + +

***********************************

| / Slide up
| \ Slide down
| h Hammer-on
| p Pull-off
| . Stacatto
| ~ Let ring

Almost there ...

Sign in to get your own page with links to favourite songs and more. You are just one click away...

Login with Facebook Login with Google