Search tabs and chords

Search for song, artist or band

Log in

One click and you are in

Login with Facebook Login with Google

Why sign up and log in

Guitar Tabs Explorer
Xtc bass tabs for Radios in motion

Bass tabs

Tuning: Standard (E A D G)

Difficulty: Novice

Intro:
G|------------|--------------|------------|--------------|
D|------------|--------------|------------|--------------|
A|------------|-----------3--|------------|-----------3--|
E|-5--5--5--5-|-5--5--5-0---0|-5--5--5--5-|-5--5--5-0---0|

G|------------|--------------|------------|-------------------|
D|------------|--------------|------------|-------------------|
A|------------|-----------3--|------------|-------------------|
E|-5--5--5--5-|-5--5--5-0---0|-5--5--5--5-|-5--5-/-12-12-12-12|

G|------------|--------------|------------|--------------|
D|------------|--------------|------------|--------------|
A|------------|-----------3--|------------|-----------3--|
E|-5--5--5--5-|-5--5--5-0---0|-5--5--5--5-|-5--5--5-0---0|

G|------------|--------------|------------|-------------------|
D|------------|--------------|------------|-------------------|
A|------------|-----------3--|------------|-------------------|
E|-5--5--5--5-|-5--5--5-0---0|-5--5--5--5-|-5--5-/-12-12-12-12|

Verse 1:
G|------------|--------------|------------|--------------|
D|------------|--------------|------------|--------------|
A|------------|-----------3--|------------|-----------3--|
E|-5--5--5--5-|-5--5--5-0---0|-5--5--5--5-|-5--5--5-0---0|

G|------------|--------------|------------|-----------------|
D|------------|--------------|------------|-----------------|
A|------------|-----------3--|------------|-----------------|
E|-5--5--5--5-|-5--5--5-0---0|-5--5--5--5-|-5--5-/-12-12-12-|

Pre-Chorus:
G|---------------|----------------|----------------|----------------| (x2)
D|---------------|----------------|----------------|----------------|
A|---------------|-7-7-7-7-7-7-7-7|----------------|----------------|
E|-7--7-7-7-7-7-7|----------------|-5-5-5-5-5-5-5-5|-5-5-5-5-5-5-5-5|

G|---------------|----------------|
D|---------------|----------------|
A|---------------|-7-7-7-7-7-7-7-7|
E|-7--7-7-7-7-7-7|----------------|

Chorus:
G|----------|----------|----------|---------|-----------|-----------|
D|----------|----------|----------|---------|-----------|-----------|
A|----------|-5---4----|----------|-5---4---|-----------|-5---4-/14\|
E|-5-r------|----------|-5-r------|---------|-5---------|-----------|

G|---------|------------|---------|------------|
D|---------|------------|---------|------------|
A|---------|-----7-7-7-7|---------|-----7-7-7-7|
E|-0-------|------------|-0-------|------------|

Interlude:
G|------------|--------------|------------|--------------|
D|------------|--------------|------------|--------------|
A|------------|-----------3--|------------|-----------3--|
E|-5--5--5--5-|-5--5--5-0---0|-5--5--5--5-|-5--5--5-0---0|

G|------------|--------------|------------|-------------------|
D|------------|--------------|------------|-------------------|
A|------------|-----------3--|------------|-------------------|
E|-5--5--5--5-|-5--5--5-0---0|-5--5--5--5-|-5--5-/-12-12-12-12|

Verse 2:
G|------------|--------------|------------|--------------|
D|------------|--------------|------------|--------------|
A|------------|-----------3--|------------|-----------3--|
E|-5--5--5--5-|-5--5--5-0---0|-5--5--5--5-|-5--5--5-0---0|

G|------------|--------------|------------|-------------------|
D|------------|--------------|------------|-------------------|
A|------------|-----------3--|------------|-------------------|
E|-5--5--5--5-|-5--5--5-0---0|-5--5--5--5-|-5--5-/-12-12-12-12|

Pre-Chorus:
G|---------------|----------------|----------------|----------------| (x2)
D|---------------|----------------|----------------|----------------|
A|---------------|-7-7-7-7-7-7-7-7|----------------|----------------|
E|-7--7-7-7-7-7-7|----------------|-5-5-5-5-5-5-5-5|-5-5-5-5-5-5-5-5|

G|---------------|----------------|
D|---------------|----------------|
A|---------------|-7-7-7-7-7-7-7-7|
E|-7--7-7-7-7-7-7|----------------|

Chorus:
G|----------|----------|----------|---------|-----------|-----------|
D|----------|----------|----------|---------|-----------|-----------|
A|----------|-5---4----|----------|-5---4---|-----------|-5---4-/14\|
E|-5-r------|----------|-5-r------|---------|-5---------|-----------|

G|---------|------------|---------|------------|
D|---------|------------|---------|------------|
A|---------|-----7-7-7-7|---------|-----7-7-7-7|
E|-0-------|------------|-0-------|------------|

Interlude:
G|------------|--------------|------------|--------------|
D|------------|--------------|------------|--------------|
A|------------|-----------3--|------------|-----------3--|
E|-5--5--5--5-|-5--5--5-0---0|-5--5--5--5-|-5--5--5-0---0|

G|------------|--------------|------------|-------------------|
D|------------|--------------|------------|-------------------|
A|------------|-----------3--|------------|-------------------|
E|-5--5--5--5-|-5--5--5-0---0|-5--5--5--5-|-5--5-/-12-12-12-12|

Verse 3:
G|------------|--------------|------------|--------------|
D|------------|--------------|------------|--------------|
A|------------|-----------3--|------------|-----------3--|
E|-5--5--5--5-|-5--5--5-0---0|-5--5--5--5-|-5--5--5-0---0|

G|------------|--------------|------------|-------------------|
D|------------|--------------|------------|-------------------|
A|------------|-----------3--|------------|-------------------|
E|-5--5--5--5-|-5--5--5-0---0|-5--5--5--5-|-5--5-/-12-12-12-12|

Pre-Chorus:
G|---------------|----------------|----------------|----------------| (x2)
D|---------------|----------------|----------------|----------------|
A|---------------|-7-7-7-7-7-7-7-7|----------------|----------------|
E|-7--7-7-7-7-7-7|----------------|-5-5-5-5-5-5-5-5|-5-5-5-5-5-5-5-5|

G|---------------|----------------|
D|---------------|----------------|
A|---------------|-7-7-7-7-7-7-7-7|
E|-7--7-7-7-7-7-7|----------------|

Chorus:
G|----------|----------|----------|---------|-----------|-----------|
D|----------|----------|----------|---------|-----------|-----------|
A|----------|-5---4----|----------|-5---4---|-----------|-5---4-/14\|
E|-5-r------|----------|-5-r------|---------|-5---------|-----------|

G|---------|------------|---------|------------|
D|---------|------------|---------|------------|
A|---------|-----7-7-7-7|---------|-----7-7-7-7|
E|-0-------|------------|-0-------|------------|

G|------------|------------|------------|------------|
D|------------|------------|------------|------------|
A|------------|------------|------------|------------|
E|-5--5--5--5-|-5--5--5--5-|-5--5--5--5-|-5--5--5--5-|

G|------------|-------------|
D|------------|-------------|
A|------------|-------------|
E|-5--5--5--5-|-5--5--5-/13\|

G|---------|------------|---------|------------|
D|---------|------------|---------|------------|
A|---------|-----7-7-7-7|---------|-----7-7-7-7|
E|-0-------|------------|-0-------|------------|

Outro:
G|----------|--------|----------------|----------------|--|
D|----------|--------|----------------|----------------|--|
A|----------|--------|----------------|----------------|--|
E|-3-r------|--------|-3-3-3-3-3-3-3-3|-3-3-3-3-3-3-3-3|-3|


************************************

| / Slide up
| \ Slide down
| r Rest

************************************

Almost there ...

Sign in to get your own page with links to favourite songs and more. You are just one click away...

Login with Facebook Login with Google