Search tabs and chords

Search for song, artist or band

Log in

One click and you are in

Login with Facebook Login with Google

Why sign up and log in

Guitar Tabs Explorer
Xtc bass tabs for Officer blue

Bass tabs

Tuning: Half-Step Down (D# G# C# F#)

Difficulty: Novice

Intro:
(00:02)
F#|--------------| (x4)
C#|--------------|
G#|-7-----5-----6|
D#|----7----5-5--|

Verse 1:
F#|--------------|--------------|------------|--------------|
C#|--------------|--------------|------------|--------------|
G#|-7-----5-----6|-7-----5------|------------|--------------|
D#|----7----5-5--|----7----5-5-0|-5--5--5--5-|-2--2--2-2-2-/|

F#|--------------| (x2)
C#|--------------|
G#|-7-----5-----6|
D#|----7----5-5--|

Pre-Chorus:
F#|--------------|--------------|------------|--------------|
C#|--------------|--------------|------------|--------------|
G#|-7-----5-----6|-7-----5------|------------|--------------|
D#|----7----5-5--|----7----5-5-0|-5--5--5--5-|-2--2--2-2-2-/|

F#|--------------|--------------|
C#|--------------|--------------|
G#|-7-----5-----6|-7-----5------|
D#|----7----5-5--|----7----5-5-0|

Chorus:
F#|-------------|--------------|-------------|-----------------|
C#|-------------|--------------|-------------|-----------------|
G#|-------------|--------------|-------------|-----------------|
D#|-5--5--7--7-\|-3--3--5--5-/7|-5--5--7--7-\|-3--3--5-5-(5-5)-|

Interlude:
F#|--------------| (x4)
C#|--------------|
G#|-7-----5-----6|
D#|----7----5-5--|

Verse 2:
F#|--------------|--------------|-------------|--------------|
C#|--------------|--------------|-------------|--------------|
G#|-7-----5-----6|-7-----5------|-------------|--------------|
D#|----7----5-5--|----7----5-5-0|-5--5--5--5-\|-2--2--2-2-2-/|

F#|--------------| (x2)
C#|--------------|
G#|-7-----5-----6|
D#|----7----5-5--|

Pre-Chorus:
F#|--------------|--------------|-------------|--------------|
C#|--------------|--------------|-------------|--------------|
G#|-7-----5-----6|-7-----5------|-------------|--------------|
D#|----7----5-5--|----7----5-5-0|-5--5--5--5-\|-2--2--2-2-2-/|

F#|--------------|--------------|
C#|--------------|--------------|
G#|-7-----5-----6|-7-----5------|
D#|----7----5-5--|----7----5-5-0|

Chorus:
F#|-------------|--------------|-------------|-----------------|
C#|-------------|--------------|-------------|-----------------|
G#|-------------|--------------|-------------|-----------------|
D#|-5--5--7--7-\|-3--3--5--5-/7|-5--5--7--7-\|-3--3--5-5-(5-5)-|

Solo:
F#|--------------| (x12)
C#|--------------|
G#|-7-----5-----6|
D#|----7----5-5--|

Verse 3:
F#|--------------|--------------|-------------|--------------|
C#|--------------|--------------|-------------|--------------|
G#|-7-----5-----6|-7-----5------|-------------|--------------|
D#|----7----5-5--|----7----5-5-0|-5--5--5--5-\|-2--2--2-2-2-/|

F#|--------------| (x2)
C#|--------------|
G#|-7-----5-----6|
D#|----7----5-5--|

Pre-Chorus:
F#|--------------|--------------|-------------|--------------|
C#|--------------|--------------|-------------|--------------|
G#|-7-----5-----6|-7-----5------|-------------|--------------|
D#|----7----5-5--|----7----5-5-0|-5--5--5--5-\|-2--2--2-2-2-/|

F#|--------------|--------------|
C#|--------------|--------------|
G#|-7-----5-----6|-7-----5------|
D#|----7----5-5--|----7----5-5-0|

Chorus:
F#|-------------|--------------|-------------|------------------|
C#|-------------|--------------|-------------|------------------|
G#|-------------|--------------|-------------|------------------|
D#|-5--5--7--7-\|-3--3--5--5-/7|-5--5--7--7-\|-3--3--5-5-(5-5)-/|

Outro:
F#|------------------------------| (x3)
C#|------------------------------|
G#|-12-14-(14-12)--12-14-(14-12)-|
D#|------------------------------|

F#|------------------------------|----------------|
C#|------------------------------|----------------|
G#|-12-14-(14-12)--12-12-(12-10)-|----------------|
D#|------------------------------|-12------(12-12)|


************************************

| / Slide up
| \ Slide down
| (n-n) Fast

************************************

Almost there ...

Sign in to get your own page with links to favourite songs and more. You are just one click away...

Login with Facebook Login with Google