Search tabs and chords

Search for song, artist or band

Log in

One click and you are in

Login with Facebook Login with Google

Why sign up and log in

Guitar Tabs Explorer
Xtc bass tabs for Living through another cuba

Bass tabs with lyrics

Tuning: Standard (E A D G)

Difficulty: Novice

XTC - Living Through Another Cuba

0:00 - 0:13

Ho ho ho ho ha ha ha ha ho ho ho ha ho ho,
Ho ho ho ho ha ha ha ha ho ho ho ha ho ho,

G|-------------10b11-11b10-*-|
D|---------------------------|
A|-0-0-0-0-0-0-*-------------| (x3)
E|-5-5-5-5-5-5-*-------------|

You could leave the E string out if you'd like (especially for the last note,)
I just included it to mimic the album version better.

0:13 - 2:28

G|---------------------------------|
D|-11--11-11-*------9--9-9-*-------|
A|------------9--9-*--------7--7-*-|
E|---------------------------------|

2:29 - 2:39

Ho ho ho ho ha ha ha ha ho ho ho ha ho ho,

G|-------------10b11-11b10-*-|
D|---------------------------|
A|-0-0-0-0-0-0-*-------------| (x3)
E|-5-5-5-5-5-5-*-------------|

2:40 - 2:43:

G|------------------------14-14-14-16-16-16-12-12-12-14\-|
D|-------------------------------------------------------|
A|-0---0---0---0---0---0-*-------------------------------|
E|-5---5---5---5---5---5-*-------------------------------|

This chart just above is at the same speed as other charts except for
the fast part at the end. You can leave the fast part out if you want.

2:42 - 3:00

G|---------------------------------|
D|-11--11-11-*------9--9-9-*-------|
A|------------9--9-*--------7--7-*-|
E|---------------------------------|

3:02 - 3:02:

Nothing's played.

3:03 - 3:06:

G|---------------------------------|
D|-11--11-11-*------9--9-9-*-------|
A|------------9--9-*--------7--7-*-|
E|---------------------------------|

3:06 - 3:13:

Nothing's played.

3:13 - 3:26:

G|---------------------------------|
D|-11--11-11-*------9--9-9-*-------|
A|------------9--9-*--------7--7-*-|
E|---------------------------------|

3:26 - 3:57:

Nothing's played.

3:57 - 4:01:

G|----------------------------------------------|
D|--------------11--11-11-*------9--9-9-*-------|
A|-(7)-*-(7)-*-------------9--9-*--------7--7-*-|
E|----------------------------------------------|

The E notes in brackets ("ghost notes") are either quiet or are on guitar.
My ears tell me they don't sound like they're played with a guitar pick.

4:01 - 4:24:

G|---------------------------------|
D|-11--11-11-*------9--9-9-*-------|
A|------------9--9-*--------7--7-*-|
E|---------------------------------|

4:24 - 4:26:

G|-------------|
D|-11--11-11-*-|
A|-------------|
E|-------------|

Legend:

* = Mute String
() = Placed around ghost notes.
\ = Slide down.
b = bend string.

- Gargoyle2500

Almost there ...

Sign in to get your own page with links to favourite songs and more. You are just one click away...

Login with Facebook Login with Google