Search tabs and chords

Search for song, artist or band

Log in

One click and you are in

Login with Facebook Login with Google

Why sign up and log in

Guitar Tabs Explorer
Xtc bass tabs for Jason and the argonauts

Bass tabs

Tuning: Standard (E A D G)

Intro (at 00:14):
  1 + 2 + 3 + 4 +  1 + 2 + 3 + 4 +
G|----------------|----------------|
D|----------------|----------------|
A|4---4---4---4---|4---4---4---4---|
E|----------------|----------------|
  crescendo

Verse 1:
  1 + 2 + 3 + 4 +  1 + 2 + 3 + 4 +  1 + 2 + 3 + 4 +  1 + 2 + 3 + 4 +   --
G|----------------|----------------|----------------|----------------|  |
D|----------------|----------------|----------------|----------------|  |
A|.---.---.---.---|.---.---.---.---|5-------4-------|2-------4-------|  |
E|2---2---2---2---|2---2---2---2---|----------------|----------------|  |
                                                                        |-x2
  1 + 2 + 3 + 4 +  1 + 2 + 3 + 4 +  1 + 2 + 3 + 4 +  1 + 2 + 3 + 4 +    |
G|----------------|----------------|----------------|----5-------5---|  |
D|----------------|----------------|----------------|--5---5---5-----|  |
A|.---.---.---.---|.---.---.---.---|5-------4-------|3-------3-------|  |
E|2---2---2---2---|2---2---2---2---|----------------|----------------| --


Prechorus:
  1 + 2 + 3 + 4 +  1 + 2 + 3 + 4 +  1 + 2 + 3 + 4 +  1 + 2 + 3 + 4 +
G|----------------|----------------|----------------|----------------|
D|----------------|----------------|----------------|----------------|
A|----9--9----9---|----8--8----8---|----7--7----7---|----7--7----7---|
E|7-------7-------|6-------6-------|5-------5-------|5-------5-------|


Chorus:
  1 + 2 + 3 + 4 +
G|----------------|
D|----------------|
A|----2-4-5-4-2---|x11
E|3-5-----------5-|

  1 + 2 + 3 + 4 +  1 + 2 + 3 + 4 +
G|----------------|----------------|
D|----------------|----------------|
A|4---4---4---4---|4---4---4---4---|
E|----------------|----------------|

Verse 2:
  1 + 2 + 3 + 4 +  1 + 2 + 3 + 4 +  1 + 2 + 3 + 4 +  1 + 2 + 3 + 4 +   --
G|----------------|----------------|----------------|----------------|  |
D|----------------|----------------|----------------|----------------|  |
A|.---.---.---.---|.---.---.---.---|5-------4-------|2-------4-------|  |
E|2---2---2---2---|2---2---2---2---|----------------|----------------|  |
                                                                        |-x2
  1 + 2 + 3 + 4 +  1 + 2 + 3 + 4 +  1 + 2 + 3 + 4 +  1 + 2 + 3 + 4 +    |
G|----------------|----------------|----------------|----5-------5---|  |
D|----------------|----------------|----------------|--5---5---5-----|  |
A|.---.---.---.---|.---.---.---.---|5-------4-------|3-------3-------|  |
E|2---2---2---2---|2---2---2---2---|----------------|----------------| --


Prechorus:
  1 + 2 + 3 + 4 +  1 + 2 + 3 + 4 +  1 + 2 + 3 + 4 +  1 + 2 + 3 + 4 +
G|----------------|----------------|----------------|----------------|
D|----------------|----------------|----------------|----------------|
A|----9--9----9---|----8--8----8---|----7--7----7---|----7--7----7---|
E|7-------7-------|6-------6-------|5-------5-------|5-------5-------|


Chorus:
  1 + 2 + 3 + 4 +
G|----------------|
D|----------------|
A|----2-4-5-4-2---|x11
E|3-5-----------5-|

  1 + 2 + 3 + 4 +  1 + 2 + 3 + 4 +
G|----------------|----------------|
D|----------------|----------------|
A|4---4---4---4---|4---4---4---4---|
E|----------------|----------------|

Bridge:
  1 + 2 + 3 + 4 +  1 + 2 + 3 + 4 +  1 + 2 + 3 + 4 +  1 + 2 + 3 + 4 +  1 + 2 + 3 + 4 +  1 + 2 + 3 + 4 +
G|----------------|----------------|----------------|----------------|----------------|----------------|
D|----------------|----------------|----------------|------.---------|------.---------|------.---------|
A|3---------------|L---------------|------.---------|2-----2---2-----|3-----3---3-----|5-----5---5-----|
E|----------------|----------------|3-----3---3-----|----------------|----------------|----------------|

  1 + 2 + 3 + 4 +  1 + 2 + 3 + 4 +  1 + 2 + 3 + 4 +  1 + 2 + 3 + 4 +  1 + 2 + 3 + 4 +
G|----------------|----------------|----------------|----------------|----------------|
D|----------------|----------------|----------------|------.---------|------.---------|
A|3---------------|3---------------|------.---------|2-----2---2-----|3-----3---3-----|
E|------------3---|----------------|3-----3---3-----|----------------|----------------|

  1 + 2 + 3 + 4 +
G|----------------|
D|----------------|
A|0---0---0---0---|x4
E|----------------|

Instrumental:
  1 + 2 + 3 + 4 +
G|----------------|
D|----------------|
A|----2-4-5-4-2---|
E|3-5-----------5-|

This phrase is repeated innumerable times- just wait til the slow flange finishes!

Bridge 2:
  1 + 2 + 3 + 4 +  1 + 2 + 3 + 4 +  1 + 2 + 3 + 4 +  1 + 2 + 3 + 4 +  1 + 2 + 3 + 4 +  1 + 2 + 3 + 4 +
G|----------------|----------------|----------------|----------------|----------------|----------------|
D|----------------|----------------|----------------|------.---------|------.---------|------.---------|
A|3---------------|L---------------|------.---------|2-----2---2-----|3-----3---3-----|5-----5---5-----|
E|----------------|----------------|3-----3---3-----|----------------|----------------|----------------|

  1 + 2 + 3 + 4 +  1 + 2 + 3 + 4 +  1 + 2 + 3 + 4 +  1 + 2 + 3 + 4 +  1 + 2 + 3 + 4 +
G|----------------|----------------|----------------|----------------|----------------|
D|----------------|----------------|----------------|------.---------|------.---------|
A|3---------------|3---------------|------.---------|2-----2---2-----|3-----3---3-----|
E|------------3---|----------------|3-----3---3-----|----------------|----------------|

  1 + 2 + 3 + 4 +
G|----------------|
D|----------------|
A|0---0---0---0---|x4
E|----------------|

Chorus:
  1 + 2 + 3 + 4 +
G|----------------|
D|----------------|
A|----2-4-5-4-2---|x21
E|3-5-----------5-|

  1 + 2 + 3 + 4 +
G|----------------|
D|----------------|
A|----------------|
E|3---------------|

************************************

| .   Staccato
| L   Tie

************************************

Almost there ...

Sign in to get your own page with links to favourite songs and more. You are just one click away...

Login with Facebook Login with Google