Search tabs and chords

Search for song, artist or band

Log in

One click and you are in

Login with Facebook Login with Google

Why sign up and log in

Guitar Tabs Explorer
Xtc bass tabs for Generals and majors

Bass tabs

XTC
Generals and Majors
ben_fico@yahoo.com

intro/outro
g)-------------------------------3-5----------3-5
d)-----------------------------5------------5----
a)8-8-8---6-8--8-8-8---6-3-3-3--------3-3-3------
e)------8------------8---------------------------

g)----------------------------------------------
d)--------6-8---------6-8-----------------------
a)------8-----------8-----8-8-8---6-8--8-8-8---6
e)6-6-6-------6-6-6-------------8------------8--

verse
g)----------------------------------------------------7-9-10
d)--------------------------------------------7-8-10
a)8-8-8---6-8--8-8-8---6-8--8-8-8---6-8--8-10
e)------8------------8------------8-----

"hard" part

g)--------------------------
d)--------------------------
a)--------------------------
e)10-10-10-10-10\6-6-6-6-6/9

slow part

g)---------------------------
d)---------------------------
a)8~~~--3~~~~--1~~~~~--8~~~~~
e)---------------------------




this file is all my own work.

__________________________________

Almost there ...

Sign in to get your own page with links to favourite songs and more. You are just one click away...

Login with Facebook Login with Google