Log in

One click and you are in

Login with Facebook Login with Google

Why sign up and log in

Guitar Tabs Explorer
Xmal Deutschland bass tabs for Matador

Bass tabs

Tuning: Standard (E A D G)

Standard Tunning (E, D, A, E)
Intro: (Bass comes in at 0:08)

G|-----------------------------|
D|-----------------------------| x4
A|-5--5-5-5-5--12--12-12-12-12-|
E|-----------------------------|

G|-----------------------------------------------------------|
D|-----------------------------------------------------------| x4
A|-7--7-7-7-7--10--10-10-10-10---5--5-5-5-5--12--12-12-12-12-|
E|-----------------------------------------------------------|


Verse:


G|------------------------------|
D|------------------------------| x2
A|-3--3-3--3-3-3--0--0-0--0-0-0-|
E|------------------------------|


G|------------------------------|
D|------------------------------| x5
A|-1--1-1--1-3-1--0--0-0--0-0-0-|
E|------------------------------|

G|-----------------------------|
D|-----------------------------| x2
A|-5--5-5-5-5--12--12-12-12-12-|
E|-----------------------------|

Chorus:
G|-----------------------------------------------------------|
D|-----------------------------------------------------------| x3
A|-7--7-7-7-7--10--10-10-10-10---5--5-5-5-5--12--12-12-12-12-|
E|-----------------------------------------------------------|

G|-----------------------------|
D|-----------------------------| x1
A|-7--7-7-7-7--10--10-10-10-10-|
E|-----------------------------|


Verse:
G|------------------------------|
D|------------------------------| x2
A|-3--3-3--3-3-3--0--0-0--0-0-0-|
E|------------------------------|

G|------------------------------|
D|------------------------------| x5
A|-1--1-1--1-3-1--0--0-0--0-0-0-|
E|------------------------------|

G|-----------------------------|
D|-----------------------------| x2
A|-5--5-5-5-5--12--12-12-12-12-|
E|-----------------------------|


Chorus:
G|-----------------------------------------------------------|
D|-----------------------------------------------------------| x3
A|-7--7-7-7-7--10--10-10-10-10---5--5-5-5-5--12--12-12-12-12-|
E|-----------------------------------------------------------|


Bridge:
G|-------5-x5-------------|
D|-5-x5--------3-x3--7-x7-| x2
A|------------------------|
E|------------------------|

G|-----------5--------------|
D|-5-3-5-3-5--------------7-| x2
A|--------------8-5-8-5-8---|
E|--------------------------|

G|-----------5---5--5-5--5-5-5|
D|-5-3-5-3-5------------------| x1
A|----------------------------|
E|----------------------------|

G|------------------------------|
D|------------------------------| x3
A|-1--1-1--1-3-1--0--0-0--0-0-0-|
E|------------------------------|


Verse:
G|------------------------------|
D|------------------------------| x2
A|-3--3-3--3-3-3--0--0-0--0-0-0-|
E|------------------------------|

G|------------------------------|
D|------------------------------| x5
A|-1--1-1--1-3-1--0--0-0--0-0-0-|
E|------------------------------|

G|-----------------------------|
D|-----------------------------| x2
A|-5--5-5-5-5--12--12-12-12-12-|
E|-----------------------------|


Chorus:
G|-----------------------------------------------------------|
D|-----------------------------------------------------------| (Play until fade out)
A|-7--7-7-7-7--10--10-10-10-10---5--5-5-5-5--12--12-12-12-12-|
E|-----------------------------------------------------------|


***********************************

| x  Dead note

***********************************

Almost there ...

Sign in to get your own page with links to favourite songs and more. You are just one click away...

Login with Facebook Login with Google