Log in

One click and you are in

Login with Facebook Login with Google

Why sign up and log in

Guitar Tabs Explorer
Xl Capris bass tabs for My city of sydney

Bass tabs

MY CITY OF SYDNEY - per XL Capris (1979)
...a punk rock version of Tommy Leonetti's "My City of Sydney"

(NB: Root Notes shown only)
-----------------------------------------------------------------------------

Tabbed By : Roy Jones
e-mail: Eager13@myspace.com
Tuning: Standard

"My City Of Sydney....."     "Sail boats with white polka doting..."
G|-------------------------------------------------------------|
D|-------------------------------------------------------------|
A|-------7----6------6----4---------4---------2-----7----------|
E|--7------------4-------------5---------2----------------7----|

"Key Change"

"My City Of Sydney....."     "When I'm thousands of miles..."
G|-------------------------------------------------------------|
D|-------------------------------------------------------------|
A|-------8----7------7----5---------5---------3------------5---|
E|--8------------5-------------6---------3----------6----------|STOP!

"Outro"

"My City, Of Sydney"
G|----------------|
D|----------------|
A|-----------6----|
E|--6----6--------|


| / slide up
| \ slide down
| h hammer-on
| p pull-off
| ~ vibrato
| + harmonic
| x Mute note

Almost there ...

Sign in to get your own page with links to favourite songs and more. You are just one click away...

Login with Facebook Login with Google