Log in

One click and you are in

Login with Facebook Login with Google

Why sign up and log in

Guitar Tabs Explorer
Rudd Xavier guitar tabs for Fly me high

Guitar tabs with lyrics

Tuning: Standard (E A D G B E)

Key: A chord diagramE minorEm

Difficulty: Novice
Intro:
e|---------------------------------------------------------------|
B|---------------------8-------7-----1--------1h3p1--------------|
G|---------------------9-------7-----0----0---------0------------|
D|---5h7p5-------------9-------7-----2------2---------2----------|
A|----------8--5-5/7-7------x-5----x-3--3------------------------|
E|---------------------------------------------------------------|

e|------------------------------3--------------|
B|---------8------7---------------3------------|
G|---------9------7-----4-----------4----------|
D|---------9------7-----5----5-----------------|
A|---/7-7-----x-5-------5--5----------5--------|
E|-------------------x--3----------------------|


Verse:
       Emin     Dmaj   Cmaj
e|---------------------------------------------------|
B|---------8------7---5---5------5-5----5--(x)-------|
G|---------9------7---5---5------5-5----5--(x)-------|
D|---------9------7---5---5------5-5----5--(x)-------|
A|----/7-7----x-5---x-3---3------3-3----3--(x)-------|
E|---------------------------------------------------|

       Emin     Dmaj   Gmaj
e|---------------------------------------------------|
B|---------8------7---3---3------3-3----3--(x)-------|
G|---------9------7---4---4------4-4----4--(x)-------|
D|---------9------7---5---5------5-5----5--(x)-------|
A|----/7-7----x-5-----5---5------5-5----5--(x)-------|
E|------------------x-3---3------3-3----3--(x)-------|    (repeat through verse)

 Emin  Dmaj         Cmaj
Came along with the crystal eyes
      Emin             Dmaj      Gmaj
And a smile that would shine for days
    Emin           Dmaj            Cmaj
And I could see that her heart was strong
        Emin     Dmaj   Gmaj
So much kindness in her face
    Emin      Dmaj        Cmaj
And patiently she took my hand
    Emin   Dmaj     Gmaj
And gently held the space
      Emin Dmaj  Cmaj
Like a cherry blossom
          Emin     Dmaj   Gmaj
She would silently radiate

Chorus:
       Emin     Dmaj   Gmaj
e|--------------------------------------------------------|
B|---------8------7---12---12------12-12----12--(x)-------|
G|---------9------7---12---12------12-12----12--(x)-------|
D|---------9------7---12---12------12-12----12--(x)-------|
A|----/7-7----x-5---x-10---10------10-10----10--(x)-------|
E|--------------------------------------------------------|

       Emin     Dmaj   Gmaj
e|---------------------------------------------------|
B|---------8------7---3---3------3-3----3--(x)-------|
G|---------9------7---4---4------4-4----4--(x)-------|
D|---------9------7---5---5------5-5----5--(x)-------|
A|----/7-7----x-5-----5---5------5-5----5--(x)-------|
E|------------------x-3---3------3-3----3--(x)-------|  (repeat through chorus)

       Emin  Dmaj   Gmaj
Fly me high, butterfly
       Emin   Dmaj   Gmaj
Fly me gently to the sky
       Emin  Dmaj   Gmaj
Fly me high, butterfly
       Emin   Dmaj   Gmaj
Fly me gently to the sky


Verse 2:
(Same as verse 1)

Came along when my hands were tied
And I knew I just had to wait
Lick my wounds, rebuild my pride
Leave the seed to germinate
See it needed sun and it needed rain
And a love I could not locate
I trusted time and I trusted fire
Because I learned to trust in fate


Chorus:
Fly me high, butterfly
Fly me gently to the sky
Fly me high butterfly
Fly me gently to the sky

Fly me high, butterfly
Fly me gently to the sky
Fly me high butterfly
Fly me gently to the sky


Bridge:
(Strumming)
Cmaj        Dmaj          Emin          Dmaj    Cmaj
Beneath the canopy of the jungle when I saw her face
      Cmaj         Dmaj               Emin    Dmaj    Cmaj
To the belly of the animals on with its centipedes and snakes
Cmaj       Dmaj              Gmaj
Shipibo's song will never fade


instrumental:
e|---------------------------------------------------------------|
B|---------------------8-------7-----1--------1h3p1--------------|
G|---------------------9-------7-----0----0---------0------------|
D|---5h7p5-------------9-------7-----2------2---------2----------|
A|----------8--5-5/7-7------x-5----x-3--3------------------------|
E|---------------------------------------------------------------|

e|----------------------------|
B|---------8------7-----3-----|
G|---------9------7-----4-----|
D|---------9------7-----5-----|
A|---/7-7-----x-5-------5-----|
E|-------------------x--3-----|

e|---------------------------------------------------------------|
B|---------------------8-------7-----1--------1h3p1--------------|
G|---------------------9-------7-----0----0---------0------------|
D|---5h7p5-------------9-------7-----2------2---------2----------|
A|----------8--5-5/7-7------x-5----x-3--3------------------------|
E|---------------------------------------------------------------|

e|------------------------------3--------------|
B|---------8------7---------------3------------|
G|---------9------7-----4-----------4----------|
D|---------9------7-----5----5-----------------|
A|---/7-7-----x-5-------5--5----------5--------|
E|-------------------x--3----------------------|


Verse 3:
(same as verse 1 but end on Gmaj)

Can't find the road no more
When you cannot find your way
The candle burns out before you reach your destination
You can't find the strength inside
To keep on with your days
The answer lies deep inside the natural mystic from which we came

************************************

| h  Hammer-on
| p  Pull-off
| x  Dead note
| /  Slide up

************************************

Almost there ...

Sign in to get your own page with links to favourite songs and more. You are just one click away...

Login with Facebook Login with Google