Log in

One click and you are in

Login with Facebook Login with Google

Why sign up and log in

Guitar Tabs Explorer
Xandria tabs for Snow-white

Guitar tabs with lyrics

-------------------------------------------------------------------------
Band: Xandria
Album: Ravenheart


Tuning: A chord diagramD MajorD
Riff 1a
|--------------------------------|
|--------------------------------|
|--------------------------------| x1
|--2---2---0---------------3--3--|
|--2-----2---4---0-2h3-2---3--3--|
|--0-----------------------1--1--|


Riff 1b
|---------------------------------|
|---------------------------------|
|---------------------------------| x1
|--2---2---0---------------3-3-3--|
|--2-----2---4---0-2h3-2---3-3-3--|
|--0-----------------------1-1-1--|


Riff 1c
|----------------------------------------------------|
|----------------------------------------------------|
|----------------------------------------------------| x1
|--2---2---0---------------3--3--3/5555555-33333333--|
|--2-----2---4---0-2h3-2---3--3--3/5555555-33333333--|
|--0-----------------------1--1--1/3333333-11111111--|


Riff 2
|-------|
|-------|
|-------| x4
|--2-2--|
|--2-2--|
|--0-0--|

Riff 1a x 1


Riff 1b x 1


Riff 1c x 1


Riff 2 x 4


Riff 3
|--------|
|--------|
|--------| x2
|--2--2--|
|--2--2--|
|--0--0--|


Riff 1a x 1


Riff 1b x 1


Riff 1c x 1


Riff 4
|-----|
|-----|
|-----| x1
|--2--|
|--2--|
|--0--|


Riff 5
|------------------------------------------------------|
|------------------------------------------------------|
|------------------------------------------------------| x1
|------------2b-2v------------3b-3v-------------2b-2v--|
|------------------------------------------------------|
|--0-0--0-0---------0-0--0-0---------0-0--0-0----------|


Riff 6
|----------------------|
|----------------------|
|----------------------| x1
|-------3----5-2----3--|
|-------3----5-2----3--|
|--0000-1-00-3-4-00-1--|
   ····   ··     ··


Riff 7
|-----------------------------------------------|
|-----------------------------------------------|
|-----------------------------------------------| x1
|----------2b-2v----------3b-3v----------2b-2v--|
|-----------------------------------------------|
|--0--0-0---------0--0-0---------0--0-0---------|


Riff 6 x 1


Riff 7 x 1


Riff 6 x 1


Riff 7 x 1


Riff 6 x 1


Riff 7 x 1


Riff 6 x 8


Riff 1a x 1


Riff 1b x 1


Riff 1c x 1


Riff 1a x 1


Riff 1b x 1


Riff 1c x 1

|-----|
|-----|
|-----| Song ends on D.
|--2--|
|--2--|
|--0--|

And that's pretty much it! :D

************************************

| /   slide up
|    slide down
| h   hammer-on
| p   pull-off
| ~   vibrato
| +   harmonic
| ·   Mute note
| b   Bend
| pb  Pre-bend
| br  Bend release
| pbr Pre-bend release
| brb Bend release bend

************************************

Almost there ...

Sign in to get your own page with links to favourite songs and more. You are just one click away...

Login with Facebook Login with Google