Log in

One click and you are in

Login with Facebook Login with Google

Why sign up and log in

Guitar Tabs Explorer
X Rat guitar tabs for O metal

Guitar tabs

Intro: A chord diagramD MajorD A chord diagramA majorA A chord diagramD MajorD A chord diagramG MajorG A chord diagramBB A chord diagramE MajorE


RIFF CLEAN:

E|------------------------------------------------------|
B|---------------------5p6------------6p5---------------|
G|--------7-----5p7---------7-------------7--7p5---5h7--|
D|-----7----7-------7-------------7--------------5------|
A|--5--------------------------5------------------------|
D|------------------------------------------------------|

DIST:

E|------------------------------------------------------|
B|------------------------------------------------------|
G|------------------------------------------------------|
D|------------------------------------------------------|
A|----5-5-5-5-5-5-5-5-5-5-5-5-5-5-5-5-------------------|
E|----5-5-5-5-5-5-5-5-5-5-5-5-5-5-5-5-------------------|

E|------------------------------------------------------|
B|------------------------------------------------------|
G|------------------------------------------------------|
D|------------------------------------------------------|
A|---8-8-8-7-7-7-5-5-5-5-5-5-5-5-5-5--------------------|
D|---0-0-0-0-0-0-0-0-0-0-0-0-0-0-0-0--------------------|

E|------------------------------------------------------|
B|------------------------------------------------------|
G|------------------------------------------------------|
D|------------------------------------------------------|
A|---8-8-8-7-7-7-5-5-5-5-5-5-5-5-5-5--3h5---------------|
D|---0-0-0-0-0-0-0-0-0-0-0-0-0-0-0-0--0h0---------------|

VERSO DIST:

E|------------------------------------------------------|
B|------------------------------------------------------|
G|------------------------------------------------------| x2
D|------------------------------------------------------|
A|--0-0-0-2-2-2-3-3-3-5-5-5-----------------------------|
D|--0-0-0-2-2-2-3-3-3-5-5-5-----------------------------|

E|------------------------------------------------------|
B|------------------------------------------------------|
G|--2-2-2-4-4-4-5-5-5-7-7-7-----------------------------| x2
D|--2-2-2-4-4-4-5-5-5-7-7-7-----------------------------|
A|--0-0-0-2-2-2-3-3-3-5-5-5-----------------------------|
D|------------------------------------------------------|


RIFF OUTRO:

E|------------------------------------------------------|
B|------------------------------------------------------|
G|------------------------------------------------------| x2
D|------0-------4---------5-----------------------------|
A|----0--0----2--2-----3--------------------------------|
D|--0-------2-------3-----------------------------------|

E|------------------------------------------------------|
B|------------------------------------------------------|
G|------------------------------------------------------| x2
D|-------7---------4-----------5------------------------|
A|-----5--5-----2----2------3---------------------------|
D|--5--------2-----------3------------------------------|

Almost there ...

Sign in to get your own page with links to favourite songs and more. You are just one click away...

Login with Facebook Login with Google