Log in

One click and you are in

Login with Facebook Login with Google

Why sign up and log in

Guitar Tabs Explorer
X Japan bass tabs for Jade

Bass tabs

Intro
G|----------------------------------------------------------|
D|----------------------------------------------------------|
A|----------------------------------------------------------|
E|-33333333-3--3--3333333-3--3--3333333-3--3--3-4-3-4-3-1-4-|
B|----------------------------------------------------------|

G|----------------------------------------------------------|
D|----------------------------------------------------------|
A|----------------------------------------------------------|
E|-33333333-3--3--3333333-3--3--3333333-3--3--3-4-3-6-3-4---|
B|----------------------------------------------------------|

G|----------------------------------------------------------|
D|----------------------------------------------------------|
A|----------------------------------------------------------|
E|-33333333-3--3--3333333-3--3--3333333-3--3--3-4-3-4-3-1-4-|
B|----------------------------------------------------------|

G|--------------------------------------------|
D|--------------------------------------------|
A|--------------------------------------------|
E|-33333333-3--3--3333333-3--3--3333333-3--3--|
B|--------------------------------------------|

Pre Verse
G|-----------------------------------------------------------------|
D|-----------------------------------------------------------------|
A|-----------------------------------------------------------------|
E|-3---4-3-4-3-4-3---3-4-3-4-3-4---3---4-3-4-3-4-3---3-4-3-4-3-1-4-|
B|-----------------------------------------------------------------|

G|-----------------------------------------------------------------|-------------------|
D|-----------------------------------------------------------------|o-----------------o|
A|-----------------------------------------------------------------|-------------------|
E|-3---4-3-4-3-4-3---3-4-3-4-3-4---3---4-3-4-3-4-3---3-4-3-6-3-4---|o-3-3-----3-3-----o|
B|-----------------------------------------------------------------|-------------------|

Verse
G|-----------------------------------------------------------------|
D|-----------------------------------------------------------------|
A|-----------------------------------------------------------------|
E|-3---4-3-4-3-4-3---3-4-3-4-3-4---3---4-3-4-3-4-3---3-4-3-4-3-1-4-|
B|-----------------------------------------------------------------|

G|-----------------------------------------------------------------|
D|-----------------------------------------------------------------|
A|-----------------------------------------------------------------|
E|-3---4-3-4-3-4-3---3-4-3-4-3-4---3---4-3-4-3-4-3---3-4-3-6-3-4---|
B|-----------------------------------------------------------------|

G|---------------------------------------------------------------|
D|---------------------------------------------------------------|
A|-6---6-6-6-6---6---6-6-6-6-6---5---5-5-5-5-5---5---5-5-5---5---|
E|-------------6-------------------------------5-----------5-----|
B|---------------------------------------------------------------|

G|-------------------------------------------------------------------|
D|-------------------------------------------------------------------|
A|-------------------------------------------------------------------|
E|-3---3-4-3-4-3-4-3---3-4-3-4-3-4---3---4-3-4-3-4-3---3-4-3-4-3-1-4-|
B|-------------------------------------------------------------------|


Pre Chorus
G|---------------------------------------------------------------|
D|---------------------------------------------------------------|
A|-6---6-6-6-6---6---6-6-6---6---8---8-8-8-8-8---8---8-8-8---8---|
E|-------------6-----------6-------------------8-----------8-----|
B|---------------------------------------------------------------|

G|-----------------------------------------------------------------|
D|-----------------------------------------------------------------|
A|-----------------------------------------------------------------|
E|-3---3-4-3-4-3-4-3---3-4-3-4-3-4---5-5-5-5-5-5-5---5-5-5-5-5-5---|
B|-----------------------------------------------------------------|

G|---------------------------------------------------------------|
D|---------------------------------------------------------------|
A|-6---6-6-6-6---6---6-6-6---6---8---8-8-8-8-8---8---8-8-8---8---|
E|-------------6-----------6-------------------8-----------8-----|
B|---------------------------------------------------------------|


Chorus
G|---------------------------------------------------------------------------|
D|---------------------------------------------------------------------------|
A|------------8--8-8------------5--5-5---6--6-6---8--8-8------------8--8-8---|
E|-3-6--6-6------------3--3-3------------------------------6--6-6------------|
B|---------------------------------------------------------------------------|

G|-------------------------------------------------------------------------|
D|-------------------------------------------------------------------------|
A|----------8--8-8------------5--5-5---6--6-6---8--8-8------------8--8-8---|
E|-6--6-6------------3--3-3------------------------------6--6-6------------|
B|-------------------------------------------------------------------------|


Verse
G|-----------------------------------------------------------------|
D|-----------------------------------------------------------------|
A|-----------------------------------------------------------------|
E|-3---4-3-4-3-4-3---3-4-3-4-3-4---3---4-3-4-3-4-3---3-4-3-4-3-1-4-|
B|-----------------------------------------------------------------|

G|-----------------------------------------------------------------|
D|-----------------------------------------------------------------|
A|-----------------------------------------------------------------|
E|-3---4-3-4-3-4-3---3-4-3-4-3-4---3---4-3-4-3-4-3---3-4-3-6-3-4---|
B|-----------------------------------------------------------------|

G|---------------------------------------------------------------|
D|---------------------------------------------------------------|
A|-6---6-6-6-6---6---6-6-6-6-6---5---5-5-5-5-5---5---5-5-5---5---|
E|-------------6-------------------------------5-----------5-----|
B|---------------------------------------------------------------|

G|-----------------------------------------------------------------|
D|-----------------------------------------------------------------|
A|-----------------------------------------------------------------|
E|-3---4-3-4-3-4-3---3-4-3-4-3-4---3---4-3-4-3-4-3---3-4-3-4-3-1-4-|
B|-----------------------------------------------------------------|


Pre Chorus
G|---------------------------------------------------------------|
D|---------------------------------------------------------------|
A|-6---6-6-6-6---6---6-6-6---6---8---8-8-8-8-8---8---8-8-8---8---|
E|-------------6-----------6-------------------8-----------8-----|
B|---------------------------------------------------------------|
G|-----------------------------------------------------------------|
D|-----------------------------------------------------------------|
A|-----------------------------------------------------------------|
E|-3---3-4-3-4-3-4-3---3-4-3-4-3-4---5-5-5-5-5-5-5---5-5-5-5-5-5---|
B|-----------------------------------------------------------------|

G|---------------------------------------------------------------|
D|---------------------------------------------------------------|
A|-6---6-6-6-6---6---6-6-6---6---8---8-8-8-8-8---8---8-8-8---8---|
E|-------------6-----------6-------------------8-----------8-----|
B|---------------------------------------------------------------|


Chorus
G|---------------------------------------------------------------------------|
D|---------------------------------------------------------------------------|
A|------------8--8-8------------5--5-5---6--6-6---8--8-8------------8--8-8---|
E|-3-6--6-6------------3--3-3------------------------------6--6-6------------|
B|---------------------------------------------------------------------------|

G|-------------------------------------------------------------------------|
D|-------------------------------------------------------------------------|
A|----------8--8-8------------5--5-5---6--6-6---8--8-8---------------------|
E|-6--6-6------------3--3-3------------------------------6--6-6---6--6-6---|
B|-------------------------------------------------------------------------|

Post Chorus
2:54    x4      x4      x4
G|------------|------------|------------|-------------------------------------|
D|o----------o|o----------o|o----------o|-------------------------------------|
A|--6--6-6----|------------|------------|-9--9-9---8--8-8---6--6-6------------|
E|o----------o|o-9--9-9---o|o-7--7-7---o|----------------------------9--9-9---|
B|------------|------------|------------|-------------------------------------|

3:18
G|-------------------------------------|-----------------------|-------|
D|-------------------------------------|o---------------------o|-------|
A|-------------------------------------|-----------------------|-------|
E|-7--7-7---7--7-7---9--9-9---9--9-9---|o-2--2-2---2-2--2-2---o|-2-----|
B|-------------------------------------|-----------------------|-------|

Pre Solo
3:36
G|----------------------------------------------------------------------------------|
D|----------------------------------------------------------------------------------|
A|----------------------------------------------------------------------------------|
E|-2---2--2--2--2-2-2-2-2-2-2-2---2--2--2--2-3-2-4-2-0-2-2---2--2--2--2-3-2-4-2-0-2-|
B|----------------------------------------------------------------------------------|


Solo
3:48
G|-------------------------------------------------------------------------------|
D|-------------------------------------------------------------------------------|
A|--------------8-9-8-10-8-6-8---------------------------------------------------|
E|-2---2--2--2-----------------222222222-2-2--223-2-2-2--223-2-2-2--223-2-4-2-3--|
B|-------------------------------------------------------------------------------|

3:55                           x6             x4
G|----------------------------------------------|----------|--------------|-----------|
D|----------------------------------------------|o--------o|--------------|o----------|
A|----------------------------------------------|----------|--------------|-----------|
E|-22222-2-2--223-2-2-2--223-2-2-2--2-3-2-4-2-3-|o-2-2----o|--2-3-2-4-2-3-|o-2-2-----o|
B|----------------------------------------------|----------|--------------|-----------|

4:12
G|-------------------------------|
D|-------------------------------|
A|-------------------------------|
E|-2-3-2-4-2-3-2-3-5-2-5-2-7h8p7-|
B|-------------------------------|

Interlude
G|-------------------------------------------------------------|
D|-------------------------------------------------------------|
A|---------------------------------------------------6----6----|
E|-3----3----3----7----7----7----3----3----4----4--------------|
B|-------------------------------------------------------------|

G|-------------------------------------------------------------------|
D|-------------------------------------------------------------------|
A|-----6---8-------4---6-------6-------6---8-------4---6-------8---\-|
E|-4-----------8-----------4-------4-----------8-----------4---------|
B|-------------------------------------------------------------------|


Chorus
5:02
G|-------------------------------------------------------------------------|
D|-------------------------------------------------------------------------|
A|----------8--8-8------------5--5-5---6--6-6---8--8-8------------8--8-8---|
E|-6--6-6------------3--3-3------------------------------6--6-6------------|
B|-------------------------------------------------------------------------|

G|-------------------------------------------------------------------------|
D|-------------------------------------------------------------------------|
A|----------8--8-8------------5--5-5---6--6-6---8--8-8---6--6-6---6--6-6---|
E|-6--6-6------------3--3-3------------------------------------------------|
B|-------------------------------------------------------------------------|

G|-------------------------------------------------------------------------|
D|-------------------------------------------------------------------------|
A|-8--8-8---8--8-8---------------------------------------6--6-6---6--6-6---|
E|-------------------2--2-2---5--5-5---6--6-6---5--5-5---------------------|
B|-------------------------------------------------------------------------|

G|--------------------------------------------|
D|--------------------------------------------|
A|-8--8-8---8--8-8---8--8-8---8-8--8-8--8-----|
E|--------------------------------------------|
B|--------------------------------------------|


Outro
G|-----------------------------------------------------------------|
D|-----------------------------------------------------------------|
A|-----------------------------------------------------------------|
E|-3---4-3-4-3-4-3---3-4-3-4-3-4---3---4-3-4-3-4-3---3-4-3-4-3-1-4-|
B|-----------------------------------------------------------------|

G|-----------------------------------------------------------------|-------------------|
D|-----------------------------------------------------------------|o-----------------o|
A|-----------------------------------------------------------------|-------------------|
E|-3---4-3-4-3-4-3---3-4-3-4-3-4---3---4-3-4-3-4-3---3-4-3-6-3-4---|o-3-3-----3-3-----o|
B|-----------------------------------------------------------------|-------------------|

6:04
G|----------------------------------------------------------------|
D|----------------------------------------------------------------|
A|----------------------------------------------------------------|
E|-3-4-3-6-3-4-3-3-4-6-4-6-7-8-6-8-9-10-9-10-11-12-10-12h13p12-12-|
B|----------------------------------------------------------------|

Almost there ...

Sign in to get your own page with links to favourite songs and more. You are just one click away...

Login with Facebook Login with Google