Log in

One click and you are in

Login with Facebook Login with Google

Why sign up and log in

Guitar Tabs Explorer
X Japan tabs for Art of life

Guitar tabs

Title: Art of Life
Album: Art of Life (1993)

Here is what I managed to figure out for art of life, No Solo!
Only one guitar is tabbed

Good Luck

Guitar_1

A chord diagramE MajorE||------------------|------------------|----------0---------------0-------|
A chord diagramBB||------------------|------------------|--------0---0-----------0---0-----|
A chord diagramG+G||------------------|------------------|------0-------0-------0-------0---|
A chord diagramD MajorD||------------------|------------------|----2-----------2---2-----------2-|
A chord diagramA augmentedA||------------------|------------------|--3---------------3---------------|
A chord diagramE MajorE||------------------|------------------|----------------------------------|

----------2---------------2-------|----------0---------------0-------|
--------0---0-----------0---0-----|--------0---0-----------0---0-----|
------2-------2-------2-------2---|------0-------0-------0-------0---|
----1-----------1---1-----------1-|----2-----------2---2-----------2-|
--2---------------2---------------|--3---------------3---------------|
----------------------------------|----------------------------------|


----------2---------------2-------|----------0---------------0-------|
--------0---0-----------0---0-----|--------0---0-----------0---0-----|
------2-------2-------2-------2---|------0-------0-------0-------0---|
----1-----------1---1-----------1-|----2-----------2---2-----------2-|
--2---------------2---------------|--3---------------3---------------|
----------------------------------|----------------------------------|


----------2---------------2-------|----------0---------------0-------|
--------0---0-----------0---0-----|--------0---0-----------0---0-----|
------2-------2-------2-------2---|------0-------0-------0-------0---|
----1-----------1---1-----------1-|----2-----------2---2-----------2-|
--2---------------2---------------|--3---------------3---------------|
----------------------------------|----------------------------------|


----------2---------------2-------|----------0---------------0-------|
--------0---0-----------0---0-----|--------0---0-----------0---0-----|
------2-------2-------2-------2---|------0-------0-------0-------0---|
----1-----------1---1-----------1-|----2-----------2---2-----------2-|
--2---------------2---------------|--3---------------3---------------|
----------------------------------|----------------------------------|


----------2---------------2-------|----------0---------------0-------|
--------0---0-----------0---0-----|--------0---0-----------0---0-----|
------2-------2-------2-------2---|------0-------0-------0-------0---|
----1-----------1---1-----------1-|----2-----------2---2-----------2-|
--2---------------2---------------|--3---------------3---------------|
----------------------------------|----------------------------------|


----------2---------------2-------|----------0---------------0-------|
--------0---0-----------0---0-----|--------0---0-----------0---0-----|
------2-------2-------2-------2---|------0-------0-------0-------0---|
----1-----------1---1-----------1-|----2-----------2---2-----------2-|
--2---------------2---------------|--3---------------3---------------|
----------------------------------|----------------------------------|


----------2---------------2-------|----------0---------------0-------|
--------0---0-----------0---0-----|--------0---0-----------0---0-----|
------2-------2-------2-------2---|------0-------0-------0-------0---|
----1-----------1---1-----------1-|----2-----------2---2-----------2-|
--2---------------2---------------|--3---------------3---------------|
----------------------------------|----------------------------------|


----------2---------------2-------|----------0---------------0-------|
--------0---0-----------0---0-----|--------0---0-----------0---0-----|
------2-------2-------2-------2---|------0-------0-------0-------0---|
----1-----------1---1-----------1-|----2-----------2---2-----------2-|
--2---------------2---------------|--3---------------3---------------|
----------------------------------|----------------------------------|


----------2---------------2-------|----------0---------------0-------|
--------0---0-----------0---0-----|--------0---0-----------0---0-----|
------2-------2-------2-------2---|------0-------0-------0-------0---|
----1-----------1---1-----------1-|----2-----------2---2-----------2-|
--2---------------2---------------|--3---------------3---------------|
----------------------------------|----------------------------------|


----------2---------------2-------|----------0---------------0-------|
--------0---0-----------0---0-----|--------0---0-----------0---0-----|
------2-------2-------2-------2---|------0-------0-------0-------0---|
----1-----------1---1-----------1-|----2-----------2---2-----------2-|
--2---------------2---------------|--3---------------3---------------|
----------------------------------|----------------------------------|


----------2---------------2-------|----------0---------------0-------|
--------0---0-----------0---0-----|--------0---0-----------0---0-----|
------2-------2-------2-------2---|------0-------0-------0-------0---|
----1-----------1---1-----------1-|----2-----------2---2-----------2-|
--2---------------2---------------|--3---------------3---------------|
----------------------------------|----------------------------------|


----------2---------------2-------|----------------------------------|
--------0---0-----------0---------|----------0---------------0-------|
------2-------2-------2-----------|------0-----0---0-----0-----0---0-|
----1-----------1---1-------------|----2---2-----2-----2---2-----2---|
--2---------------2---------0-----|----------------------------------|
------------------------------3-2-|--0---------------0---------------|


----------------------------------|----------2---------------2-------|
------0---4-0---0-----0---4-0---0-|------3-----3---3-----3-----3---3-|
----------------------------------|----2---2-----2-----2---2-----2---|
--1-4---4-----4---1-4---4-----4---|--0---------------0---------------|
----------------------------------|----------------------------------|
----------------------------------|----------------------------------|


----------------------------------|----------------------------------|
----------1---------------0-------|----------0---------------0-------|
------0-----0---0-----2-----2---2-|------0-----0---0-----0-----0---0-|
----2---2-----2-----1---1-----1---|----2---2-----2-----2---2-----2---|
--3---------------2---------------|----------------------------------|
----------------------------------|--0---------------0---------------|


----------2---------------2-------|----------------------------------|
------3-----3---3-----3-----3---3-|----------1---------------1-------|
----2---2-----2-----2---2-----2---|------0-----0---0-----0-----0---0-|
--0---------------0---------------|----2---2-----2-----2---2-----2---|
----------------------------------|--3---------------0---------------|
----------------------------------|----------------------------------|


----------2---------------2-------|----------------------------------|
------3-----3---3-----0-----0---0-|----------0---------------0-------|
----2---2-----2-----2---2-----2---|------0-----0---0-----0-----0---0-|
--0---------------1---------------|----2---2-----2-----2---2-----2---|
----------------------------------|----------------------------------|
----------------------------------|--0---------------0---------------|


----------------------------------|----------2---------------2-------|
------0---4-0---0-----0---4-0---0-|------3-----3---3-----3-----3---3-|
----------------------------------|----2---2-----2-----2---2-----2---|
--1-4---4-----4---1-4---4-----4---|--0---------------0---------------|
----------------------------------|----------------------------------|
----------------------------------|----------------------------------|


----------------------------------|----------------------------------|
----------2---------------2-------|----------1---------------1-------|
------2-----2---2-----2-----2---2-|------0-----0---0-----0-----0---0-|
----2---2-----2-----2---2-----2---|----2---2-----2-----2---2-----2---|
--4---------------4---------------|--3---------------3---------------|
----------------------------------|----------------------------------|


----------------------------------|----------2---------------2-------|
----------0-----------1-------1---|------3-----3---3-----0-----0---0-|
------0-----0---0---0---0---0---0-|----2---2-----2-----2---2-----2---|
----0---0-----0---2-------0-------|--0---------------1---------------|
----------------------------------|----------------------------------|
--3-------------------------------|----------------------------------|


----------0-----------------|----------------------------------|
------0-----0---0---3-------|----------0---------------0-------|
----0---0-----0-----6-------|------0-----0---0-----0-----0---0-|
--2---------------0---------|----0---0-----0-----0---0-----0---|
------------------7---------|----------------------------------|
----------------------------|--3---------------3---------------|


----------------------------------|----------------------------------|
----------0---------------0-------|----------1---------------1-------|
------2-----2---2-----2-----2---2-|------0-----0---0-----0-----0---0-|
----1---1-----1-----1---1-----1---|----2---2-----2-----2---2-----2---|
--2---------------2---------------|--3---------------3---------------|
----------------------------------|----------------------------------|


----------2---------------2-------|----------------------------------|
------3-----3---3-----3-----3---3-|----------0---------------0-------|
----2---2-----2-----2---2-----2---|------0-----0---0-----0-----0---0-|
--0---------------0---------------|----0---0-----0-----0---0-----0---|
----------------------------------|----------------------------------|
----------------------------------|--3---------------3---------------|


----------------------------------|----------------------------------|
----------0---------------0-------|----------1---------------2-------|
------2-----2---2-----2-----2---2-|------0-----0---0-----2-----2---2-|
----1---1-----1-----1---1-----1---|----2---2-----2-----2---2-----2---|
--2---------------2---------------|--3---------------4---------------|
----------------------------------|----------------------------------|


----------2---------------2-------|----------0-------2-------0-------|
------3-----3---3-----0-----0---0-|------0-----0---0---0---0---0---0-|
----2---2-----2-----2---2-----2---|----0---0-----0-------0-------0---|
--0---------------1---------------|--2-------------------------------|
----------------------------------|----------------------------------|
----------------------------------|----------------------------------|


----------2-------3-------2-------|----------------------------------|
------3-----3---3---3---3---3---3-|----------1-------3-------1-------|
----2---2-----2-------2-------2---|------2-----2---2---2---2---2---2-|
--0-------------------------------|----2---2-----2-------2-------2---|
----------------------------------|--4-------------------------------|
----------------------------------|----------------------------------|


----------------------------------|----------0-------2-------0-------|
----------1---------------0-------|------0-----0---0---0---0---0---0-|
------0-----0---0-----2-----2---2-|----0---0-----0-------0-------0---|
----2---2-----2-----1---1-----1---|--2-------------------------------|
--3---------------2---------------|----------------------------------|
----------------------------------|----------------------------------|


----------2-------3-------2-------|----------2---------------2-------|
------0-----0---0---0---0---0---0-|------3-----3---------0-----0-----|
----2---2-----2-------2-------2---|----2---2-----2-----2---2-----2---|
--1-------------------------------|--0-------------0-1-------------1-|
----------------------------------|----------------------------------|
----------------------------------|----------------------------------|


----------0-----------------|-------------------|------------------|
------0-----0---0---0-------|-------------------|------------------|
----0---0-----0-----4-------|-------------------|------------------|
--2---------------0---------|-------------------|------------------|
------------------7---------|-------------------|------------------|
----------------------------|-------------------|------------------|


------------------|--------------------|-----------------------|
------------------|--------------------|-----------------------|
------------------|--------------------|-----------------------|
------------------|--------------------|--0---2------------0-2-|
------------------|----------------2-2-|--------2--------------|
------------------|--------------------|-----------------------|


----------------------|-----------------------|---------------------|
----------------------|-----------------------|---------------------|
----------------------|-----------------------|---------------------|
--4---2-0-------------|--0---2-----------4--2-|--1--------2----4----|
----------------------|--------3--------------|---------------------|
-------------------3--|-----------------------|---------------------|


--------------------|-----------------------|--------------------|
--------------------|-----------------------|--------------------|
--------------------|-----------0-----------|--------------------|
--0--------0--------|--4------------4--2--0-|--0--------0--------|
--3--------7--------|--7--------------------|--3--------7--------|
--------------------|-----------------------|--------------------|


--------------------------------|--------------------------------|
--------------------------------|-----------------------------0--|
--0--------------------0-----2--|-----------------------2-----0--|
--2--------------------2-----4--|-----------------------4--------|
--------------------------------|--------------------------------|
-----0-0--0-0--0-0--0-----0-----|--0--0-0--0-0--0-0--0-----0-----|


--------------------------------|----------------------------------------|
-----------------------0-----0--|----------------------------------------|
-----------------------0-----0--|----------------------------------------|
--------------------------------|----------------------------------------|
--------------------------------|----------------------------------------|
--0--0-0--0-0--0-0--0-----0-----|--0--0-0--0-0--0-0--0-0--0-0--0-0--0-0--|


--------------------------------|--------------------------------|
--------------------------------|-----------------------------0--|
--0--------------------0-----2--|-----------------------2-----0--|
--2--------------------2-----4--|-----------------------4--------|
--------------------------------|--------------------------------|
-----0-0--0-0--0-0--0-----0-----|--0--0-0--0-0--0-0--0-----0-----|


--------------------------------|----------------------------------------|
-----------------------0-----0--|----------------------------------------|
-----------------------0-----0--|----------------------------------------|
--------------------------------|----------------------------------------|
--------------------------------|----------------------------------------|
--0--0-0--0-0--0-0--0-----0-----|--0--0-0--0-0--0-0--0-0--0-0--0-0--0-0--|


------------------------------------|------------------------------------|
------------------------------------|------------------------------------|
--2--2--2-2--2--2--2--2--2-2--2--2--|--2--2--2-2--2--2--2--2--2-2--2--2--|
--0--0--0----0-----0--0--0----0-----|--0--0--0----0-----0--0--0----0-----|
----------0-----0----------0-----0--|----------0-----0----------0-----0--|
------------------------------------|------------------------------------|


--------------------------------|-----------------------------------------|
-----------------------------0--|------------0----------------------------|
--0--------------------0-----0--|------------0----------------------------|
--2--------------------2--------|-----------------------------------------|
--------------------------------|-----------------------------------------|
-----0-0--0-0--0-0--0-----0-----|--0-0--0-0-----0-0--0-0--0-0--0-0--0--0--|


------------------------------------|------------------------------------|
------------------------------------|------------------------------------|
--2--2--2-2--2--2--2--2--2-2--2--2--|--2--2--2-2--2--2--2--2--2-2--2--2--|
--0--0--0----0-----0--0--0----0-----|--0--0--0----0-----0--0--0----0-----|
----------0-----0----------0-----0--|----------0-----0----------0-----0--|
------------------------------------|------------------------------------|


-------------------|-------------------|-------------------------------------|
-------------------|-------------------|-------------------------------------|
-------------------|-------------------|-------------------------------------|
--0----------------|--0----------------|------------0------------0--------2--|
--3----------------|--7----------------|----------------------------------0--|
-------------------|-------------------|--0-0--0-0--3--0-0--0-0--3--0--0-----|


-------------------------------------|-------------------------------------|
-------------------------------------|-------------------------------------|
-------------------------------------|-------------------------------------|
------------0------------0--------2--|------------0------------0--------2--|
----------------------------------0--|----------------------------------0--|
--0-0--0-0--3--0-0--0-0--3--0--0-----|--0-0--0-0--3--0-0--0-0--3--0--0-----|


-------------------------|-------------------------------------|
-------------------------|-------------------------------------|
-------------0--------0--|-------------------------------------|
----4-----4--0--4-----0--|------------0------------0--------2--|
----5-----5-----5--------|----------------------------------0--|
-------------------------|--0-0--0-0--3--0-0--0-0--3--0--0-----|


-------------------------------------|-------------------------------------|
-------------------------------------|-------------------------------------|
-------------------------------------|-------------------------------------|
------------0------------0--------2--|------------0------------0--------2--|
----------------------------------0--|----------------------------------0--|
--0-0--0-0--3--0-0--0-0--3--0--0-----|--0-0--0-0--3--0-0--0-0--3--0--0-----|


-------------------------|-------------------|-------------------|
-------------------------|-------------------|-------------------|
-------------0--------0--|-------------------|-------------------|
----4-----4--0--4-----0--|--0----------------|--0----------------|
----5-----5-----5--------|--3----------------|--7----------------|
-------------------------|-------------------|-------------------|


-------------------------------------|-------------------|
-------------------------------------|-------------------|
-------------------------------------|-------------------|
------------0------------0--------2--|-------------------|
----------------------------------0--|-------------------|
--0-0--0-0--3--0-0--0-0--3--0--0-----|-------------------|


--------------------------------------|--------------------------------------|
--------------------------------------|--------------------------------------|
--------------------------------------|--------------------------------------|
--------------------------------------|--------------------------------------|
--2--2--2--2--2--2--2--2--2--2--2--2--|--2--2--2--2--2--2--2--2--2--2--2--2--|
--0--0--0-----0-----0--0--0-----0-----|--0--0--0-----0-----0--0--0-----0-----|


------------------------------------|------------------------------------|
------------------------------------|------------------------------------|
------------------------------------|------------------------------------|
--0--0--0-0--0--0--0--0--0-0--0--0--|--0--0--0-0--0--0--0--0--0-0--0--0--|
------------------------------------|------------------------------------|
--3--3--3----3-----3--3--3----3-----|--3--3--3----3-----3--3--3----3-----|


------------------------------------|------------------------------------|
------------------------------------|------------------------------------|
--2--2--2-2--2--2--2--2--2-2--2--2--|--2--2--2-2--2--2--2--2--2-2--2--2--|
--0--0--0----0-----0--0--0----0-----|--0--0--0----0-----0--0--0----0-----|
----------0-----0----------0-----0--|----------0-----0----------0-----0--|
------------------------------------|------------------------------------|


------------------------------|-------------------------|
--0--0--0-0--0--0--0--0--0----|-------------------------|
------------------------------|-------------------0-----|
--2--2--2----2-----2--2--2----|----------------------4--|
----------2-----2-------------|-------------0-----------|
------------------------------|----3--2--3-----3--------|


------------------------------------|--------------------------------------|
------------------------------------|--------------------------------------|
------------------------------------|--------------------------------------|
------------------------------------|--------------------------------------|
--2--2--2-2--2--2--2--2--2-2--2--2--|--2--2--2--2--2--2--2--2--2--2--2--2--|
--0--0--0----0-----0--0--0----0-----|--0--0--0-----0-----0--0--0-----0-----|


-------------------|----------------------|-----------------------------------|
-------------------|----------------------|-----------------------------------|
-------------------|----------------------|-----------------------------------|
--0----------------|---------0------2-----|--0--0--0-0--0-0--0--0--0-0--0--0--|
--3----------------|--3-------------------|-----------------------------------|
-------------------|----------------------|-----------------------------------|


-------------------------------|----------------------------------|
-------------------------------|----------------------------------|
-------------------------------|----------------------------------|
--1--1--1--1--1-1--1-----1--4--|--2--2--2-2--2-2--2--2--2-2--2-2--|
----------------------2--------|----------------------------------|
-------------------------------|----------------------------------|


--------------------------|-------------------|-------------------|
--------------------------|-------------------|-------------------|
--------------------------|-------------------|-------------------|
-----2--------2-----0-----|--0----------------|--0----------------|
--------------------------|--3----------------|--7----------------|
--0-----0--0--------------|-------------------|-------------------|


-------------------|-------------------|------------------------------------|
-------------------|-------------------|------------------------------------|
-------------------|-------------------|--0--0--0-0--0--0--0--0--0-0--0--0--|
-------------------|-------------------|------------------------------------|
--0----------------|--4----------------|--3--3--3----3-----3--3--3----3-----|
--3----------------|--7----------------|----------3-----3----------3-----3--|


------------------------------------|------------------------------------|
------------------------------------|------------------------------------|
--2--2--2-2--2--2--2--2--2-2--2--2--|--2--2--2-2--2--2--2--2--2-2--2--2--|
------------------------------------|--0--0--0----0-----0--0--0----0-----|
--4--4--4----4-----4--4--4----4-----|----------0-----0----------0-----0--|
----------4-----4----------4-----4--|------------------------------------|


-------------------------------|-------------------|-------------------|
-------------------------------|-------------------|-------------------|
-------------------------------|-------------------|-------------------|
--4--4--4-4--4--4--4-----------|--0----------------|--0----------------|
--2--2--2----2-----2--0-----2--|--3----------------|--7----------------|
----------2-----2--------------|-------------------|-------------------|


-------------------|-------------------|-------------------|-------------------|
-------------------|-------------------|-------------------|-------------------|
-------------------|-------------------|-------------------|-------------------|
-------------------|-------------------|--0----------------|--0----------------|
--0----------------|--4----------------|--3----------------|--7----------------|
--3----------------|--7----------------|-------------------|-------------------|


-------------------------------------|------------------------------------|
-------------------------------------|---------------------------------0--|
------------0------------0--------2--|------------2------------2-------0--|
------------2------------2--------4--|------------4------------4----------|
-------------------------------------|------------------------------------|
--0-0--0-0-----0-0--0-0-----0--0-----|--0-0--0-0-----0-0--0-0-----0-0-----|


-------------------------------------|-------------------------------------|
------------0------------0--------0--|------------0------------0--------0--|
------------0------------0--------0--|------------0------------0--------0--|
-------------------------------------|-------------------------------------|
-------------------------------------|-------------------------------------|
--0-0--0-0-----0-0--0-0-----0--0-----|--0-0--0-0-----0-0--0-0-----0--0-----|


-------------------------------------|-------------------------------------|
-------------------------------------|----------------------------------0--|
------------0------------0--------2--|------------2------------2--------0--|
------------2------------2--------4--|------------4------------4-----------|
-------------------------------------|-------------------------------------|
--0-0--0-0-----0-0--0-0-----0--0-----|--0-0--0-0-----0-0--0-0-----0--0-----|


-------------------------------------|-------------------------------------|
------------0------------0--------0--|------------0------------0--------0--|
------------0------------0--------0--|------------0------------0--------0--|
-------------------------------------|-------------------------------------|
-------------------------------------|-------------------------------------|
--0-0--0-0-----0-0--0-0-----0--0-----|--0-0--0-0-----0-0--0-0-----0--0-----|


-------------------|------------------|------------------------------------|
-------------------|------------------|------------------------------------|
--0----------------|------------------|--1--------1------------1--------2--|
--3----------------|------------------|--2--------2------------2--------3--|
-------------------|------------------|------------------------------------|
-------------------|------------------|-----0--0-----0-0--0-0-----0--0-----|


-------------------------------------|-------------------------------------|
----------------------------------0--|------------0------------0--------0--|
------------2------------2--------1--|------------1------------1--------1--|
------------3------------3-----------|-------------------------------------|
-------------------------------------|-------------------------------------|
--0-0--0-0-----0-0--0-0-----0--0-----|--0-0--0-0-----0-0--0-0-----0--0-----|


--------------------------------------|-------------------|-------------------|
------------0------------0------------|-------------------|-------------------|
------------1------------1------------|--0----------------|----------0--------|
--------------------------------------|--3----------------|----------3--------|
--------------------------------------|-------------------|-------------------|
--0-0--0-0-----0-0--0-0-----0-0--0-0--|-------------------|-------------------|


-------------------|------------------|-------------------|-------------------|
-------------------|------------------|-------------------|-------------------|
--0----------------|------------------|-------------------|-------------------|
--7----------------|------------------|--0----------------|--0----------------|
-------------------|------------------|--3----------------|--2----------------|
-------------------|------------------|-------------------|-------------------|


-------------------|------------------|------------------|------------------|
-------------------|------------------|------------------|------------------|
-------------------|------------------|------------------|------------------|
-------------------|------------------|------------------|------------------|
--0----------------|------------------|------------------|------------------|
--7----------------|------------------|------------------|------------------|


-------------------|-------------------|-------------------|-------------------|
-------------------|-------------------|-------------------|-------------------|
-------------------|-------------------|-------------------|-------------------|
-------------------|-------------------|--0----------------|--0----------------|
--0----------------|--0----------------|--3----------------|--2----------------|
--3----------------|--3----------------|-------------------|-------------------|


-------------------|------------------|------------------|------------------|
-------------------|------------------|------------------|------------------|
-------------------|------------------|------------------|------------------|
-------------------|------------------|------------------|------------------|
--0----------------|------------------|------------------|------------------|
--7----------------|------------------|------------------|------------------|


-------------------|-------------------|-------------------|------------------|
-------------------|-------------------|-------------------|------------------|
-------------------|-------------------|-------------------|------------------|
-------------------|-------------------|-------------------|------------------|
--0----------------|--2----------------|--0----------------|------------------|
--3----------------|--4----------------|--7----------------|------------------|


------------------|------------------|-------------------|------------------|
------------------|------------------|-------------------|------------------|
------------------|------------------|-------------------|------------------|
------------------|------------------|-------------------|------------------|
------------------|------------------|--0----------------|------------------|
------------------|------------------|--3----------------|------------------|


-------------------|-------------------|-------------------|------------------|
-------------------|-------------------|-------------------|------------------|
-------------------|-------------------|-------------------|------------------|
--0----------------|--4----------------|-------------------|------------------|
--3----------------|--7----------------|--0----------------|------------------|
-------------------|-------------------|--7----------------|------------------|


------------------|------------------|-------------------|-------------------|
------------------|------------------|-------------------|-------------------|
------------------|------------------|-------------------|-------------------|
------------------|------------------|-------------------|-------------------|
------------------|------------------|--0----------------|--2----------------|
------------------|------------------|--3----------------|--4----------------|


-------------------|------------------|------------------------------------|
-------------------|------------------|------------------------------------|
-------------------|------------------|------------------------------------|
-------------------|------------------|--2--2--2-2--2--2--2--2--2-2--2--2--|
--0----------------|------------------|--0--0--0----0-----0--0--0----0-----|
--7----------------|------------------|----------0-----0----------0-----0--|


------------------------------------|------------------------------------|
------------------------------------|------------------------------------|
------------------------------------|------------------------------------|
--2--2--2-2--2--2--2--2--2-2--2--2--|------------------------------------|
--0--0--0----0-----0--0--0----0-----|--3--3--3-3--3--3--3--3--3-3--3--3--|
----------0-----0----------0-----0--|--1--1--1----1-----1--1--1----1-----|


------------------------------------|------------------------------------|
------------------------------------|------------------------------------|
------------------------------------|------------------------------------|
------------------------------------|--0--0--0-0--0--0--0--0--0-0--0--0--|
--3--3--3-3--3--3--3--3--3-3--3--3--|------------------------------------|
--1--1--1----1-----1--1--1----1-----|--2--2--2----2-----2--2--2----2-----|


------------------------------------|------------------------------------|
------------------------------------|------------------------------------|
------------------------------------|------------------------------------|
--0--0--0-0--0--0--0--0--0-0--0--0--|--0--0--0-0--0--0--0--0--0-0--0--0--|
------------------------------------|------------------------------------|
--2--2--2----2-----2--2--2----2-----|--3--3--3----3-----3--3--3----3-----|


------------------------------------|------------------------------------|
------------------------------------|------------------------------------|
------------------------------------|------------------------------------|
--2--2--2-2--2--2--2--2--2-2--2--2--|--2--2--2-2--2--2--2--2--2-2--2--2--|
------------------------------------|--0--0--0----0-----0--0--0----0-----|
--4--4--4----4-----4--4--4----4-----|----------0-----0----------0-----0--|


------------------------------------|------------------------------------|
------------------------------------|------------------------------------|
------------------------------------|--0--0--0-0--0--0--0--0--0-0--0--0--|
--2--2--2-2--2--2--2--2--2-2--2--2--|------------------------------------|
--0--0--0----0-----0--0--0----0-----|--3--3--3----3-----3--3--3----3-----|
----------0-----0----------0-----0--|----------3-----3----------3-----3--|


------------------------------------|------------------------------------|
------------------------------------|------------------------------------|
--0--0--0-0--0--0--0--0--0-0--0--0--|--2--2--2-2--2--2--2--2--2-2--2--2--|
------------------------------------|------------------------------------|
--3--3--3----3-----3--3--3----3-----|--4--4--4----4-----4--4--4----4-----|
----------3-----3----------3-----3--|----------4-----4----------4-----4--|


------------------------------------|------------------------------------|
------------------------------------|------------------------------------|
--2--2--2-2--2--2--2--2--2-2--2--2--|--2--2--2-2--2--2--2--2--2-2--2--2--|
------------------------------------|--0--0--0----0-----0--0--0----0-----|
--4--4--4----4-----4--4--4----4-----|----------0-----0----------0-----0--|
----------4-----4----------4-----4--|------------------------------------|


-------------------------------|------------------------------------|
-------------------------------|------------------------------------|
-------------------------------|--0--0--0-0--0--0--0--0--0-0--0--0--|
--4--4--4-4--4--4--4-----------|------------------------------------|
--2--2--2----2-----2--0-----2--|--3--3--3----3-----3--3--3----3-----|
----------2-----2--------------|----------3-----3----------3-----3--|


------------------------------------|------------------------------------|
------------------------------------|------------------------------------|
--2--2--2-2--2--2--2--2--2-2--2--2--|------------------------------------|
--0--0--0----0-----0--0--0----0-----|--4--4--4-4--4--4--4--4--4-4--4--4--|
----------0-----0----------0-----0--|--2--2--2----2-----2--2--2----2-----|
------------------------------------|----------2-----2----------2-----2--|


------------------------------------|------------------------------------|
------------------------------------|------------------------------------|
------------------------------------|--0--0--0-0--0--0--0--0--0-0--0--0--|
------------------------------------|------------------------------------|
--2--2--2-2--2--2--2--2--2-2--2--2--|--3--3--3----3-----3--3--3----3-----|
--0--0--0----0-----0--0--0----0-----|----------3-----3----------3-----3--|


------------------------------------|------------------------------------|
------------------------------------|------------------------------------|
--2--2--2-2--2--2--2--2--2-2--2--2--|--2--2--2-2--2--2--2--2--2-2--2--2--|
------------------------------------|--0--0--0----0-----0--0--0----0-----|
--4--4--4----4-----4--4--4----4-----|----------0-----0----------0-----0--|
----------4-----4----------4-----4--|------------------------------------|


-------------------------------|------------------------------------|
-------------------------------|------------------------------------|
-------------------------------|--0--0--0-0--0--0--0--0--0-0--0--0--|
--4--4--4-4--4--4--4-----------|------------------------------------|
--2--2--2----2-----2--0-----2--|--3--3--3----3-----3--3--3----3-----|
----------2-----2--------------|----------3-----3----------3-----3--|


------------------------------------|------------------------------------|
------------------------------------|--0--0--0-0--0--0--0--0--0-0--0--0--|
--2--2--2-2--2--2--2--2--2-2--2--2--|------------------------------------|
--0--0--0----0-----0--0--0----0-----|--1--1--1----1-----1--1--1----1-----|
----------0-----0----------0-----0--|----------1-----1----------1-----1--|
------------------------------------|------------------------------------|


------------------------------------|------------------------------------|
--0--0--0-0--0--0--0--0--0-0--0--0--|------------------------------------|
------------------------------------|--0--0--0-0--0--0--0--0--0-0--0--0--|
--2--2--2----2-----2--2--2----2-----|------------------------------------|
----------2-----2----------2-----2--|--3--3--3----3-----3--3--3----3-----|
------------------------------------|----------3-----3----------3-----3--|


------------------------------------|-------------------|--------------------|
------------------------------------|-------------------|--------------------|
--0--0--0-0--0--0--0--0--0-0--0--0--|-------------------|--------------------|
------------------------------------|--0----------------|--4-----------------|
--3--3--3----3-----3--3--3----3-----|--7----------------|--6--------4--------|
----------3-----3----------3-----3--|-------------------|-----------7--------|


---------------------------------------|---------------------------------------|
---------------------------------------|---------------------------------------|
---------------------------------------|---------------------------------------|
-------------0-------------0--------2--|-------------0-------------0--------2--|
------------------------------------0--|------------------------------------0--|
--0-0--0--0--3--0-0--0--0--3--0--0-----|--0-0--0--0--3--0-0--0--0--3--0--0-----|


---------------------------------------|-------------------------|
---------------------------------------|-------------------------|
---------------------------------------|-------------0--------0--|
-------------0-------------0--------2--|----4-----4--0--4-----0--|
------------------------------------0--|----5-----5-----5--------|
--0-0--0--0--3--0-0--0--0--3--0--0-----|-------------------------|


-------------------------------------|-------------------------------------|
-------------------------------------|-------------------------------------|
-------------------------------------|-------------------------------------|
------------0------------0--------2--|------------0------------0--------2--|
----------------------------------0--|----------------------------------0--|
--0-0--0-0--3--0-0--0-0--3--0--0-----|--0-0--0-0--3--0-0--0-0--3--0--0-----|


-------------------------------------|------------------|
-------------------------------------|------------------|
-------------------------------------|------------------|
------------0------------0--------2--|------------------|
----------------------------------0--|------------------|
--0-0--0-0--3--0-0--0-0--3--0--0-----|------------------|


--------------------------------------|-------------------------------------|
------------0------------0------------|--0----------------------------------|
------------0------------0------------|--0------------2------------0--------|
--------------------------------------|---------------4------------2--------|
--------------------------------------|-------------------------------------|
--0-0--0-0-----0-0--0-0-----0-0--0-0--|-----0-0--0-0-----0-0--0-0-----0--0--|


--------------------------------------|-------------------------------------|
--------------------------------------|-------------------------------------|
------------0------------0------------|--0----------------------------------|
--------------------------------------|---------------4------------2--------|
--3-3--3-3-----3-3--3-3-----3-3--3-3--|-----3-3--3-3-----3-3--3-3-----3--3--|
--------------------------------------|-------------------------------------|


--------------------------------------|----------------------------------|
--------------------------------------|----------------------------------|
------------2-------------------------|--2----------------------------2--|
--0-0--0-0-----0-0--0-0--4--0-0--0-0--|-----0-0--0-0--4--0-0--0-0--4-----|
--------------------------------------|----------------------------------|
--------------------------------------|----------------------------------|


-------------------------------|-------------------------------|
-------------------------------|-------------------------------|
-------------------------------|-------------------------------|
--0--0--0-0--0--0--0-----------|--4--4--4-4--4--4--------------|
----------------------0--------|--2--2--2----2-----2--0--------|
--3--3--3----3-----3--------3--|----------2-----2--------3--2--|


--------------------------------------|-------------------------------------|
------------0------------0------------|--0----------------------------------|
------------0------------0------------|--0------------2------------0--------|
--------------------------------------|---------------4------------2--------|
--------------------------------------|-------------------------------------|
--0-0--0-0-----0-0--0-0-----0-0--0-0--|-----0-0--0-0-----0-0--0-0-----0--0--|


-------------------|----------------------|------------------------------------|
-------------------|----------------------|------------------------------------|
-------------------|----------------------|--2--2--2-2--2--2--2--2--2-2--2--2--|
--0----------------|---------0------2-----|--0--0--0----0-----0--0--0----0-----|
--3----------------|--3-------------------|----------0-----0----------0-----0--|
-------------------|----------------------|------------------------------------|


-------------------------------|------------------------------------|
--0--0--0-0--0--0--------------|--0--0--0-0--0--0--0--0--0-0--0--0--|
-------------------------------|------------------------------------|
--1--1--1----1-----1-----1--4--|--2--2--2----2-----2--2--2----2-----|
----------1-----1-----2--------|----------2-----2----------2-----2--|
-------------------------------|------------------------------------|


--------------------------|-------------------|-------------------|
--0--------0--------------|-------------------|-------------------|
--------------------2-----|-------------------|-------------------|
--------------------------|--0----------------|--0----------------|
--------------------------|--3----------------|--7----------------|
-----0--0-----0--0--------|-------------------|-------------------|


-------------------|-------------------|------------------------------------|
-------------------|-------------------|------------------------------------|
-------------------|-------------------|--0--0--0-0--0--0--0--0--0-0--0--0--|
-------------------|-------------------|------------------------------------|
--0----------------|--4----------------|--3--3--3----3-----3--3--3----3-----|
--3----------------|--7----------------|----------3-----3----------3-----3--|


------------------------------------|------------------------------------|
------------------------------------|------------------------------------|
--2--2--2-2--2--2--2--2--2-2--2--2--|--2--2--2-2--2--2--2--2--2-2--2--2--|
------------------------------------|--0--0--0----0-----0--0--0----0-----|
--4--4--4----4-----4--4--4----4-----|----------0-----0----------0-----0--|
----------4-----4----------4-----4--|------------------------------------|


-------------------------------|-------------------|-------------------|
-------------------------------|-------------------|-------------------|
-------------------------------|-------------------|-------------------|
--4--4--4-4--4--4--4-----------|--0----------------|--0----------------|
--2--2--2----2-----2--0-----2--|--3----------------|--7----------------|
----------2-----2--------------|-------------------|-------------------|


-------------------|-------------------|-------------------|-------------------|
-------------------|-------------------|-------------------|-------------------|
-------------------|-------------------|-------------------|-------------------|
-------------------|-------------------|--0----------------|--0----------------|
--0----------------|--4----------------|--3----------------|--7----------------|
--3----------------|--7----------------|-------------------|-------------------|


---------------------------------------|--------------------------------------|
---------------------------------------|-----------------------------------0--|
-------------0-------------0--------2--|-------------2-------------2-------0--|
-------------2-------------2--------4--|-------------4-------------4----------|
---------------------------------------|--------------------------------------|
--0-0--0--0-----0-0--0--0-----0--0-----|--0-0--0--0-----0-0--0--0-----0-0-----|


---------------------------------------|---------------------------------------|
-------------0-------------0--------0--|-------------0-------------0--------0--|
-------------0-------------0--------0--|-------------0-------------0--------0--|
---------------------------------------|---------------------------------------|
---------------------------------------|---------------------------------------|
--0-0--0--0-----0-0--0--0-----0--0-----|--0-0--0--0-----0-0--0--0-----0--0-----|


---------------------------------------|---------------------------------------|
---------------------------------------|------------------------------------0--|
-------------0-------------0--------2--|-------------2-------------2--------0--|
-------------2-------------2--------4--|-------------4-------------4-----------|
---------------------------------------|---------------------------------------|
--0-0--0--0-----0-0--0--0-----0--0-----|--0-0--0--0-----0-0--0--0-----0--0-----|


---------------------------------------|
-------------0-------------0--------0--|
-------------0-------------0--------0--|
---------------------------------------|
---------------------------------------|
--0-0--0--0-----0-0--0--0-----0--0-----|


------------------------------------------|-------------------|
-------------0-------------0--------------|-------------------|
-------------0-------------0--------------|--0----------------|
------------------------------------------|--3----------------|
------------------------------------------|-------------------|
--0-0--0--0-----0-0--0--0-----0--0--0--0--|-------------------|


------------------|-------------------|-------------------|
------------------|-------------------|-------------------|
------------------|--0----------------|----------0--------|
------------------|--3----------------|----------3--------|
------------------|-------------------|-------------------|
------------------|-------------------|-------------------|


----------------------------------------------|--------------------------------|
----------------------------------------------|--------------------------------|
----------------------------------------------|--------------------------------|
----------------------------------------------|--------------------------------|
--2-2--2--2--2-2--2--2--2-2--2--2--2-2--2--2--|--2-2--2--2--2-2--2--2----------|
--0----0-----0----0-----0----0-----0----0-----|--0----0-----0----0-------------|


----------------------------------------------|
----------------------------------------------|
----------------------------------------------|
----------------------------------------------|
--2-2--2--2--2-2--2--2--2-2--2--2--2-2--2--2--|
--0----0-----0----0-----0----0-----0----0-----|


----------------------------------------------|-------------------|
----------------------------------------------|-------------------|
----------------------------------------------|--0----------------|
----------------------------------------------|--3----------------|
--2-2--2--2--2-2--2--2--2-2--2--2--2-2--2--2--|-------------------|
--0----0-----0----0-----0----0-----0----0-----|-------------------|


------------------|-------------------|-------------------|
------------------|-------------------|-------------------|
------------------|--0----------------|----------0--------|
------------------|--3----------------|----------3--------|
------------------|-------------------|-------------------|
------------------|-------------------|-------------------|


----------------------------------------------|--------------------------------|
----------------------------------------------|--------------------------------|
----------------------------------------------|--------------------------------|
----------------------------------------------|--------------------------------|
--2-2--2--2--2-2--2--2--2-2--2--2--2-2--2--2--|--2-2--2--2--2-2--2--2----------|
--0----0-----0----0-----0----0-----0----0-----|--0----0-----0----0-------------|


----------------------------------------------|
----------------------------------------------|
----------------------------------------------|
----------------------------------------------|
--2-2--2--2--2-2--2--2--2-2--2--2--2-2--2--2--|
--0----0-----0----0-----0----0-----0----0-----|


----------------------------------------------|-------------------|
----------------------------------------------|-------------------|
----------------------------------------------|--0----------------|
----------------------------------------------|--3----------------|
--2-2--2--2--2-2--2--2--2-2--2--2--2-2--2--2--|-------------------|
--0----0-----0----0-----0----0-----0----0-----|-------------------|


------------------|-------------------|------------------|-------------------|
------------------|-------------------|------------------|-------------------|
------------------|-------------------|------------------|--0----------------|
------------------|--4----------------|------------------|--3----------------|
------------------|--7----------------|------------------|-------------------|
------------------|-------------------|------------------|-------------------|


------------------|-------------------|-------------------|-------------------|
------------------|-------------------|-------------------|-------------------|
------------------|-------------------|-------------------|-------------------|
------------------|-------------------|-------------------|-------------------|
------------------|--0----------------|--2----------------|--0----------------|
------------------|--3----------------|--4----------------|--7----------------|


------------------|------------------|------------------|------------------|
------------------|------------------|------------------|------------------|
------------------|------------------|------------------|------------------|
------------------|------------------|------------------|------------------|
------------------|------------------|------------------|------------------|
------------------|------------------|------------------|------------------|


------------------|------------------|------------------|------------------|
------------------|------------------|------------------|------------------|
------------------|------------------|------------------|------------------|
------------------|------------------|------------------|------------------|
------------------|------------------|------------------|------------------|
------------------|------------------|------------------|------------------|


------------------|------------------|-------------------|--------------------|
------------------|------------------|-------------------|--------------------|
------------------|------------------|-------------------|--------------------|
------------------|------------------|-------------------|--------------------|
------------------|------------------|--0----------------|--------------0-----|
------------------|------------------|--7----------------|--------------7-----|


----------------------------|-----------------------|-------------------------|
----------------------------|-----------------------|-------------------------|
----------------------------|-----------0-----------|-------------------------|
--2-------------------------|-----------------------|-------------------------|
--0----0-------3------------|--0--------3-----2-----|--3-------------0--------|
---------3-1-0-1----1-0-1-2-|--3-----------------3--|--1-----1-0-1-2-3--------|


--------------------|-------------------------|--------------------|
--------------------|-------------------------|--------------------|
--------------------|-------------------------|--------------------|
--0--------4--------|-------------------------|--------------------|
--3--------7--------|--3-------------0--------|--2--------0--------|
--------------------|--1-----1-0-1-2-3--------|--4--------7--------|


-------------------|--------------------|----------------------------|
-------------------|--------------------|----------------------------|
-------------------|--------------------|----------------------------|
-------------------|--------------------|--2-------------------------|
-------------------|--0--------2--------|--0----0-------3------------|
--3----------------|--3--------4--------|---------3-1-0-1----1-0-1-2-|


-----------------------|-------------------------|-----------------------|
-

Almost there ...

Sign in to get your own page with links to favourite songs and more. You are just one click away...

Login with Facebook Login with Google