Log in

One click and you are in

Login with Facebook Login with Google

Why sign up and log in

Guitar Tabs Explorer
X Ecutioners bass tabs for Like this

Bass tabs

Difficulty: Beginner

Album: Revolutions

🏷Legend: >> play note faster
     r  let note ring
     /  slide in to
     \  slide out of

Intro | Chorus

G |------------|
D |-3-3--------|
A |------------|
E |-----/3456--| (x4, play 3 + 1/2) repeat x2

alternate with:

G |-----------|
D |-3-3--3-3--|
A |-----------|
E |-----------| repeat x4, play last note '3r' instead of '3-3'


Chorus


Verse 1 (x4)
     >> >>
G |-----1-23-55810\--|
D |-3353-------------|
A |------------------|
E |------------------|

Chorus


Verse 2 (x2)

G |----------------|
D |-33221-11-1111--|
A |----------------|
E |----------------|

G |----------------|
D |-33221--1-1-11--|
A |-------2---2----|
E |----------------|


Chorus


Verse 3 (x2)

G |-----1------1--|
D |-3353--3-353---|
A |---------------|
E |---------------|

G |-----1-----1-----|
D |-3353--3353-655--|
A |-----------------|
E |-----------------|


Chorus


Verse 4 (Turn it up!)

G |-------------------------------------------(17)1718182020\--|
D |-33556688(10)101111131315151515171718182020-----------------|
A |------------------------------------------------------------|
E |------------------------------------------------------------|


Chorus

Almost there ...

Sign in to get your own page with links to favourite songs and more. You are just one click away...

Login with Facebook Login with Google