Log in

One click and you are in

Login with Facebook Login with Google

Why sign up and log in

Guitar Tabs Explorer
X Ecutioners tabs for Its going down

Guitar tabs with lyrics

Title: It's Going Down

I think this is pretty close.
If anyone has any improvements please let me know!
Tune down 1 1/2 steps
HEAVY DISTORTION
Guitar 2 NOT SHOWN in video
Guitar 1 plays verse

-------------------------------------------------------------------------= |----
-------------------------------------------------------------------------= |----
---------------------------------2---2-----------------------------------= |----
-2-2-x-2-x-2--5^-5^-5^--3p2-2----0---0--2-2-x-2-x-2--5^-5^-5^-5^--2h3p2-2= |----
-2-2-x-2-x-2--5^-5^-5^--3p2-2----0---0--2-2-x-2-x-2--5^-5^-5^-5^--2h3p2-2= |----
-2-2-x-2-x-2--5^-5^-5^--3p2-2--2---2----2-2-x-2-x-2--5^-5^-5^-5^--2h3p2-2= |----
 Intro (Guitar 1)                                                        =
    =20

-------------------------------------------------------------------------= -----
-------------------------------------------------------------------------= -----
------------------------------------2---2--------------------------------= -----
-2-2-x-2-x-2--5^-5^-5^-5^--3p2-2----0---0--2-2-x-2-x-2--5^-5^-5^-5^--2h3p= 2-2--
-2-2-x-2-x-2--5^-5^-5^-5^--3p2-2----0---0--2-2-x-2-x-2--5^-5^-5^-5^--2h3p= 2-2--
-2-2-x-2-x-2--5^-5^-5^-5^--3p2-2--2---2----2-2-x-2-x-2--5^-5^-5^-5^--2h3p= 2-2--
 (Guitar 1 - Riff 1 - repeat until verse)                                =
    =20

---------|---------------------------------------------------------------= -----
---------|---------------------------------------------------------------= -----
---2---2-|---------------------------------------------------------------= -----
---0---0-|---------------------------------------------------------------= -----
---0---0-|---------------------------------------------------------------= -----
-2---2-0-|---------------------------------------------------------------= -----
 (Guitar 1 - Riff 1 continued)                                           =
    =20

-------------------------------------------------------------------------= -----
-------------------------------------------------------------------------= -----
-13------------------------11-----14-------13------------------------11--= -----
-------------------------------------------------------------------------= -----
-11------------------------9------12-------11------------------------9---= -----
-------------------------------------------------------------------------= -----
 (Guitar 2 Riff 1 - repeat strum all notes in time with GTR 1 Riff 1 =
until   =20

---------|---------------------------------------------------------------= -----
---------|---------------------------------------------------------------= -----
-14------|---------------------------------------------------------------= -----
---------|---------------------------------------------------------------= -----
-12------|---------------------------------------------------------------= -----
---------|---------------------------------------------------------------= -----
 verse)                                                                  =

-------------------------------------------------------------------------= -----
-------------------------------------------------------------------------= -----
--------------------2----2-----------------------------------------------= -----
-2-2-2h3-2----------0----0-----------------------------------------------= -----
-2-2-2h3-2----------0----0-----------------------------------------------= -----
-2-2-2h3-2--------2----2-------------------------------------------------= -----
 Verse (Guitar 1 Riff 2)        Now just plug in the riffs and play!!    =

Almost there ...

Sign in to get your own page with links to favourite songs and more. You are just one click away...

Login with Facebook Login with Google