Log in

One click and you are in

Login with Facebook Login with Google

Why sign up and log in

Guitar Tabs Explorer
Tammy Wynette bass tabs for Stand by your man

Bass tabs

Tuning: Standard (E A D G)


Intro:
G|--------------------------|
D|--------------------------|
A|-0-0-0--5-5-5--7-7-0--4-2-|
E|--------------------------|

Verse1:
G|--------------|-----------|-----------------|
D|--------------|-----------|-----------------|
A|--------------|-----------|-7-6-7-8-9---7-7-|
E|-0h2-4--5-0-5-|-4-2-0-7-0-|-----------7-----|

G|---------------|-------------------|----------------|
D|---------------|-------------------|----------------|
A|-------0-2-4-5-|---5---------------|-2---2----------|
E|-5-0-5---------|-5---5--5-0-5--5-3-|---2---2--0-0-0-|


Verse2: 0:44
G|--------------|-----------|-----------------|
D|--------------|-----------|-----------------|
A|--------------|-----------|-7-6-7-8-9---7-7-|
E|-0h2-4--5-0-5-|-4-2-0-7-0-|-----------7-----|

G|---------------|------------|------------------|-----------------------|
D|---------------|------------|------------------|-----------------------|
A|-------0-2-4-5-|---5--------|-5--5-9-7--7--7-7-|-7--7-7--7-7-----5-5---|
E|-5-0-5---------|-5---5--5-0-|------------------|-------------5-5-----5-|


Chorus: 1:21
G|-----------------|-----------|--------------------|---------------|
D|-----------------|-----------|--------------------|---------------|
A|-7-7-7-----------|-4--4-4--4-|-5--5-5--5-5--5-4-2-|-0-0-----2-2---|
E|-------5--5-5--5-|-----------|--------------------|-----2-2-----0-|

G|--------------------|-----------|--------------------|-----------------|
D|--------------------|-----------|--------------------|-----------------|
A|--------------------|-4--4-4--4-|-5--5-5--5-5--5-4-2-|-0-0-----2-4-4---|
E|-0-2-4-5--5--5-5--5-|-----------|--------------------|-----0-0-------2-|

G|--------------------------|
D|--------------------------|
A|----------5-5--7-7---5-5--|
E|-2-0-2-0-----------5----5-|


Outro: 2:05
G|-----------------|-----------|--------------------|-----------------|
D|-----------------|-----------|--------------------|-----------------|
A|-7-7-7-----------|-4--4-4--4-|-5--5-5--5-5--5-4-2-|-0-0-----2-4-4---|
E|-------5--5-5--5-|-----------|--------------------|-----0-0-------2-|

G|-----------------------------------|
D|-----------------------------------|
A|----------5-5--7-7---5-5--7--------|
E|-2-0-2-0-----------5--------0-0--5-|

*********
| h hammer on
*********

Almost there ...

Sign in to get your own page with links to favourite songs and more. You are just one click away...

Login with Facebook Login with Google