Log in

One click and you are in

Login with Facebook Login with Google

Why sign up and log in

Guitar Tabs Explorer
Tammy Wynette bass tabs for Im not mine to give

I'm Not Mine To Give bass tab by Tammy Wynette

Tammy Wynette bass tabs for Im not mine to give

Bass tabs

Tuning: Standard (E A D G)

🎸 Intro:
G|--------------------|------------------|
D|-5----5----7--------|----------7-------|
A|----------------7---|-5----------------|
E|--------------------|------------------|
🎸 Verse 1:
G|---------------------|--------------------|----------------------|----------------------|
D|------7------------4-|-5---------5--------|-5----5---------------|-7---------7----------|
A|-5---------5----7----|------5---------5---|---------7--5----4----|------7-------------4-|
E|---------------------|--------------------|--------------------7-|---------------5-7----|

G|---------------------|--------------------|--------------------|----------------------|
D|------7------------4-|-5---------5--------|-5----5----7--------|----------------------|
A|-5---------5----7----|------5---------5---|----------------7---|-5---------5--5--4----|
E|---------------------|--------------------|--------------------|------5-------------7-|

G|--------------------|----------------------|--------------------|-----------------------|
D|-7---------7----7---|-5----4-------------4-|-5------------------|-7---------------------|
A|------7-------------|---------7--5----7----|------5----5----7---|------7---7----------4-|
E|--------------------|----------------------|--------------------|------------5--5--7----|

G|---------------------|--------------------|--------------------|----------------------|
D|------7------------4-|-5---------5--------|-5----5----7--------|--------------------4-|
A|-5---------5----7----|------5---------5---|----------------7---|-5---------5--5--7----|
E|---------------------|--------------------|--------------------|------5---------------|

🎸 Interlude:
G|--------------------|------------------|
D|-5----5----7--------|----------7-------|
A|----------------7---|-5----------------|
E|--------------------|------------------|

🎸 Verse 2:
G|---------------------|--------------------|----------------------|----------------------|
D|------7------------4-|-5---------5--------|-5----5---------------|-7--------------------|
A|-5---------5----7----|------5---------5---|---------7--5----4----|------7-------------4-|
E|---------------------|--------------------|--------------------7-|-----------5--5--7----|

G|---------------------|--------------------|--------------------|----------------------|
D|------7------------4-|-5---------5--------|-5----5----7--------|--------------------4-|
A|-5---------5----7----|------5---------5---|----------------7---|-5---------5--5--7----|
E|---------------------|--------------------|--------------------|------5---------------|

🎸 Outro:
G|--------------------|------------------|
D|-5----5----7--------|-----------5--7---|
A|----------------7---|-5---------------5|
E|--------------------|------5-----------|

Almost there ...

Sign in to get your own page with links to favourite songs and more. You are just one click away...

Login with Facebook Login with Google