Log in

One click and you are in

Login with Facebook Login with Google

Why sign up and log in

Guitar Tabs Explorer
Wwe tabs for Voices - randy orton

Guitar tabs

Drop A chord diagramC majorC Tuning (CGCFAD)


Intro
D-----------|
A-----------|
F------7----|
C-3----7----|
G-3----5----|
C-3---------|


Verse
 .............................P.M.................................
D-----------------------------------------------------------------|
A-----------------------------------------------------------------|
F-----------------------------------------------------------------|
C-----------------------------------------------------------------|  X2
G-----------------------------------------------------------------|
C-7-7-7-7-7-7-7-7-7-7-7-7-7-7-7-7-7-7-7-7-7-7-7-7-7-7-7-7-7-7-7-7-|

D-----------|
A-----------|
F-----------|
C-7\--------|  X4
G-7\--------|
C-7\--------|

D-----|
A-----|
F-----|
C-7---|  X8
G-7---|
C-7---|



Chorus
D---------------------------------|
A---------------------------------|
F-----7---------------------------|
C-3---7---7--7--7--7---5--5--5--5-|
G-3---5---7--7--7--7---5--5--5--5-|
C-3-------7--7--7--7---5--5--5--5-|

D----------------------------------------------------------------------------------------|
A----------------------------------------------------------------------------------------|
F-----------7--7--7----------------------------------------------------------------------|
C-3--3--3---7--7--7---7-X-X-5-7-5-7-5-7--X-X-5-7-5-7-5-7--X-X-5-7-5-7-5-7--X-X-5-7-5-7-5-|
G-3--3--3---5--5--5---7-X-X-5-7-5-7-5-7--X-X-5-7-5-7-5-7--X-X-5-7-5-7-5-7--X-X-5-7-5-7-5-|
C-3--3--3-------------7-X-X-5-7-5-7-5-7--X-X-5-7-5-7-5-7--X-X-5-7-5-7-5-7--X-X-5-7-5-7-5-|



Verse
 .............................P.M.................................
D-----------------------------------------------------------------|
A-----------------------------------------------------------------|
F-----------------------------------------------------------------|
C-----------------------------------------------------------------|  X2
G-----------------------------------------------------------------|
C-7-7-7-7-7-7-7-7-7-7-7-7-7-7-7-7-7-7-7-7-7-7-7-7-7-7-7-7-7-7-7-7-|

D-----------|
A-----------|
F-----------|
C-7\--------|  X4
G-7\--------|
C-7\--------|

D-----|
A-----|
F-----|
C-7---|  X8
G-7---|
C-7---|



Chorus
D---------------------------------|
A---------------------------------|
F-----7---------------------------|
C-3---7---7--7--7--7---5--5--5--5-|
G-3---5---7--7--7--7---5--5--5--5-|
C-3-------7--7--7--7---5--5--5--5-|

D----------------------------------------------------------------------------------------|
A----------------------------------------------------------------------------------------|
F-----------7--7--7----------------------------------------------------------------------|
C-3--3--3---7--7--7---7-X-X-5-7-5-7-5-7--X-X-5-7-5-7-5-7--X-X-5-7-5-7-5-7--X-X-5-7-5-7-5-|
G-3--3--3---5--5--5---7-X-X-5-7-5-7-5-7--X-X-5-7-5-7-5-7--X-X-5-7-5-7-5-7--X-X-5-7-5-7-5-|
C-3--3--3-------------7-X-X-5-7-5-7-5-7--X-X-5-7-5-7-5-7--X-X-5-7-5-7-5-7--X-X-5-7-5-7-5-|



Solo
D--------------------------------------------|
A--------------------------------------------|
F--------7--7-7-----------------------7--7-7-|
C-3--3-3-7--7-7--7--7-7-5--5-5-3--3-3-7--7-7-|
G-3--3-3-5--5-5--7--7-7-5--5-5-3--3-3-5--5-5-|
C-3--3-3---------7--7-7-5--5-5-3--3-3--------|



Verse
D------|
A------|
F------|
C-7-7--|  X8
G-7-7--|
C-7-7--|



Chorus
D---------------------------------|
A---------------------------------|
F-----7---------------------------|
C-3---7---7--7--7--7---5--5--5--5-|
G-3---5---7--7--7--7---5--5--5--5-|
C-3-------7--7--7--7---5--5--5--5-|

D----------------------------------------------------------------------------------------|
A----------------------------------------------------------------------------------------|
F-----------7--7--7----------------------------------------------------------------------|
C-3--3--3---7--7--7---7-X-X-5-7-5-7-5-7--X-X-5-7-5-7-5-7--X-X-5-7-5-7-5-7--X-X-5-7-5-7-5-|
G-3--3--3---5--5--5---7-X-X-5-7-5-7-5-7--X-X-5-7-5-7-5-7--X-X-5-7-5-7-5-7--X-X-5-7-5-7-5-|

Almost there ...

Sign in to get your own page with links to favourite songs and more. You are just one click away...

Login with Facebook Login with Google