Log in

One click and you are in

Login with Facebook Login with Google

Why sign up and log in

Guitar Tabs Explorer
Victor Wooten bass tabs for The lesson

Bass tabs

----------------------------------------------------------------------------
			   THE LESSON - VICTOR WOOTEN
----------------------------------------------------------------------------

Tabbed By : Sean MacDonald
e-mail: smac258@yahoo.com
| / slide up
|<#> harmonic


Groove
G-------<12>-----<12>------<12>-----<12>-------<12>----------|
D-------<12>-----<12>------<12>-----<12>-------<12>----------|
A---10--------8----------------------------------------------|
E----------------------11--------8--------10-----------------|

G-------<12>-----<12>------<12>-----<12>-------<12>----------|
D-------<12>-----<12>------<12>-----<12>-------<12>----------|
A---10--------8----------------------------------------------|
E----------------------11--------8-------11-10-------9-------|

G-------<12>-----<12>------<12>-----<12>-------<12>----------|
D-------<12>-----<12>------<12>-----<12>-------<12>----------|
A---10--------8----------------------------------------------|
E----------------------11--------8--------10---------9-------|

G-------<12>-----<12>------<12>-----<12>-------<12>----------|
D-------<12>-----<12>------<12>-----<12>-------<12>----------|
A---10--------8----------------------------------------------|
E----------------------11--------8-------11-10-------9-------|

part 1
G----------12--14--15--12----------0--------12--10-----------------0---|
D------12------------------12--13--12----13---------13--12--10-12--12--|
A---10-----------------------------------------------------------------|
E------------------------------13------------------------------11------|

G-------10--8----------------------7--8--11--10------------------------|
D---12---------12--10--8--7--8--10---------------13--12--10-----12-----|
A------------------------------------------------------------13--------|
E-------------------------8--------------10----------------------------|

Back to Groove

G-------<12>-----<12>------<12>-----<12>-------<12>----------|
D-------<12>-----<12>------<12>-----<12>-------<12>----------|
A---10--------8----------------------------------------------|
E----------------------11--------8-------11-10-------9-------|

part 1 again

G----------12--14--15--12----------0--------12--10-----------------0---|
D------12------------------12--13--12----13---------13--12--10-12--12--|
A---10-----------------------------------------------------------------|
E------------------------------13------------------------------11------|

G-------10--8----------------------7--8--11--10------------------------|
D---12---------12--10--8--7--8--10---------------13--12--10-----12-----|
A------------------------------------------------------------13--------|
E-------------------------8--------------10----------------------------|

part 2

G----------12-14--15------------12--14--15--------12-14-15--19-17-----------|
D-------12-------------------14--------------11/12----------------15--17-19-|
A-------------------------15------------------------------------------------|
A---11---------------12-------------------14--------------------------------|

G-----------19----------20----------20----------19-19--17-15---------15-----|
D--------15----------15----------15----------15-------------------15--------|
A-----18----------18----------18----------18--------------------17----------|
E---16---------16----------16----------15--------------------15-------------|

G---15---14-----12--11------------------------------------------------------|
D---14---13-----11--10------------------------------------------------------|
A---------------------------------------------------------------------------|
E---15---14-----11--10------------------------------------------------------|

Almost there ...

Sign in to get your own page with links to favourite songs and more. You are just one click away...

Login with Facebook Login with Google