GuitarTabsExplorer icon
GuitarTabsExplorer icon

Log in

Video

Songbook

  • Log in to add and see bookmarks

Last visited songs

    No songs visited yet...

Wyatts Song Your Name bass tab by The Wonder Years

Bass tabs

ğŸŽ¸ Intro:


E |----------------|----------------|----------------|----------------|
B |----------------|----------------|2-2-2-----------|----------------|
F#|----------------|----------------|------5-5-5-3-3-|3-3-3-3-3-3-3-3-| 2x
C#|3-3-3-3-3-3-3-3-|3-3-3-3-3-3-3-3-|----------------|----------------|



ğŸŽ¸ Verse 1:

E |----------------|----------------|----------------|----------------|
B |5---------------|----------------|----------------|----------------|
F#|----------------|----------------|3---------------|----------------|
C#|----------------|--------3-3---3-|----------------|----------------|

E |----------------|----------------|----------------|----------------|
B |----------------|----------------|----------------|----------------|
F#|2---------------|----------------|3---------------|----------------|
C#|----------------|----------------|----------------|----------------|

E |------------------------|------------------------|----------------|----------------|
B |------------------------|------------------------|----------------|----------------|
F#|10-10-10-10-10-10-10-10-|10-10-10-10-10-10-10-10-|3-3-3-3-3-3-3-3-|3-3-3-3-3-3-3-3-|
C#|------------------------|------------------------|----------------|----------------|

E |----------------|----------------|----------------|----------------|
B |----------------|----------------|----------------|----------------|
F#|2-2-2-2-2-2-2-2-|2-2-2-2-2-2-2-2-|3-3-3-3-3-3-3-3-|3-3-3-3-3-3-3-3-|
C#|----------------|----------------|----------------|----------------|

E |----------------|----------------|----------------|----------------|
B |----------------|2---------------|----------------|----------------|
F#|5---------------|----------------|3---------------|3---------------|
C#|----------------|----------------|----------------|----------------|

E |----------------|----------------|
B |----------------|2---------------|
F#|5---------------|----------------|
C#|----------------|----------------|


ğŸŽ¸ Chorus:

E |----------------|----------------|----------------|----------------|
B |----------------|----------------|----------------|----------------|
F#|----------------|----------------|------------3-3-|3-3-3-3-3-3-3-3-|
C#|3-3-3-3-3-3-3-3-|3-3-3-3-3-3-3-3-|5-5-5-5-5-5-----|----------------|

E |----------------|----------------|----------------|----------------|
B |----------------|----------------|----------------|----------------|
F#|----------------|----------------|------------3-3-|3-3-3-3-3-3-3-3-|
C#|3-3-3-3-3-3-3-3-|3-3-3-3-3-3-3-3-|5-5-5-5-5-5-----|----------------|

E |----------------|----------------|----------------|----------------|
B |----------------|2-2-2-2-2-2-2-2-|----------------|----------------|
F#|5-5-5-5-5-5-5-5-|----------------|3-3-3-3-3-3-3-3-|3-3-3-3-3-3-3-3-|
C#|----------------|----------------|----------------|----------------|

E |----------------|----------------|----------------|----------------|
B |----------------|----------------|2---------------|----------------|
F#|----------------|----------------|------5-----3---|--2-----2-3-2---|
C#|3-3-3-3-3-3-3-3-|3-3-3-3-3-3-3-3-|----------------|----------------|
ğŸŽ¸ Verse 2:

E |----------------|----------------|----------------|----------------|
B |5---------------|----------------|----------------|----------------|
F#|----------------|----------------|3-3---3-3---3-3-|--3-3---3-3---3-|
C#|----------------|--------3-3---3-|----------------|----------------|

E |----------------|----------------|----------------|----------------|
B |----------------|----------------|----------------|----------------|
F#|2-2---2-2---2-2-|--2-2---2-2---2-|3-3---3-3---3-3-|--3-3---3-3---3-|
C#|----------------|----------------|----------------|----------------|

E |----------------|----------------|----------------|----------------|
B |----------------|2---------------|----------------|----------------|
F#|5---------------|----------------|3---------------|3---------------|
C#|----------------|----------------|----------------|----------------|

E |----------------|----------------|
B |----------------|2---------------|
F#|5---------------|----------------|
C#|----------------|----------------|


ğŸŽ¸ Chorus:

E |----------------|----------------|----------------|----------------|
B |----------------|----------------|----------------|----------------|
F#|----------------|----------------|------------3-3-|3-3-3-3-3-3-3-3-|
C#|3-3-3-3-3-3-3-3-|3-3-3-3-3-3-3-3-|5-5-5-5-5-5-----|----------------|

E |----------------|----------------|----------------|----------------|
B |----------------|----------------|----------------|----------------|
F#|----------------|----------------|------------3-3-|3-3-3-3-3-3-3-3-|
C#|3-3-3-3-3-3-3-3-|3-3-3-3-3-3-3-3-|5-5-5-5-5-5-----|----------------|

E |----------------|----------------|----------------|----------------|
B |----------------|2-2-2-2-2-2-2-2-|----------------|----------------|
F#|5-5-5-5-5-5-5-5-|----------------|3-3-3-3-3-3-3-3-|3-3-3-3-3-3-3-3-|
C#|----------------|----------------|----------------|----------------|

E |----------------|----------------|----------------|----------------|
B |----------------|----------------|2---------------|----------------|
F#|----------------|----------------|------5-----3---|--2-------------|
C#|3-3-3-3-3-3-3-3-|3-3-3-3-3-3-3-3-|----------------|--------5---3---|

ğŸŽ¸ Bridge:

E |----------------|----------------|----------------|------7---------|
B |----------------|----------------|----------------|--5-------5---2-|
F#|----------------|----------------|----------------|----------------|
C#|----------------|----------------|----------------|----------------|

E |----------------|----------------|----------------|----------------|
B |----------------|2---------------|----------------|5---------------|
F#|5---------------|----------------|3---------------|----------------|
C#|----------------|----------------|----------------|--------3-------|

E |----------------|----------------|----------------|----------------|
B |----------------|2---------------|----------------|5---------------|
F#|5---------------|----------------|3---------------|----------------|
C#|----------------|----------------|----------------|--------3-------|

E |----------------|----------------|----------------|----------------|
B |----------------|2---------------|10--------------|----------------|
F#|5---------------|----------------|----------------|----------------|
C#|----------------|----------------|----------------|----------------|

E |----------------|----------------|----------------|----------------|
B |5-5-5-5-5-5-5-5-|4-4-4-4-4-4-4-4-|2-2-2-2-2-2-2-2-|----------------|
F#|----------------|----------------|----------------|5-5-5-5-5-5-5-5-|
C#|----------------|----------------|----------------|----------------|

E |----------------|----------------|----------------|----------------|
B |2-2-2-2-2-2-2-2-|----------------|----------------|----------------|
F#|----------------|5-5-5-5-5-5-5-5-|3-3-3-3-3-3-3-3-|3-3-3-3-3-3-3-3-|
C#|----------------|----------------|----------------|----------------|

E |----------------|----------------|----------------|----------------|
B |5-5-5-5-5-5-5-5-|4-4-4-4-4-4-4-4-|3-3-3-3-3-3-3-3-|----------------|
F#|----------------|----------------|----------------|3-3-3-3-3-3-3-3-|
C#|----------------|----------------|----------------|----------------|

E |----------------|----------------|----------------|----------------|
B |2-2-2-2-2-2-2-2-|----------------|----------------|----------------|
F#|----------------|5-5-5-5-5-5-5-5-|3-3-3-3-3-3-3-3-|3-3-3-3-3-3-3-3-|
C#|----------------|----------------|----------------|----------------|


ğŸŽ¸ Chorus:

E |----------------|----------------|----------------|----------------|
B |----------------|----------------|----------------|----------------|
F#|----------------|----------------|------------3-3-|3-3-3-3-3-3-3-3-|
C#|3-3-3-3-3-3-3-3-|3-3-3-3-3-3-3-3-|5-5-5-5-5-5-----|----------------|

E |----------------|----------------|----------------|----------------|
B |----------------|----------------|----------------|----------------|
F#|----------------|----------------|------------3-3-|3-3-3-3-3-3-3-3-|
C#|3-3-3-3-3-3-3-3-|3-3-3-3-3-3-3-3-|5-5-5-5-5-5-----|----------------|

E |----------------|----------------|----------------|----------------|
B |----------------|----------------|3-----3---------|----------------|
F#|7-7-7-7-7-7-7-7-|6-6-6-6-6-6-6-6-|------------3---|----------------|
C#|----------------|----------------|----------------|----------------|

E |----------------|----------------|----------------|----------------|
B |----------------|----------------|2---------------|----------------|
F#|----------------|----------------|------5-----3---|--2-----2-3-2---|
C#|3-3-3-3-3-3-3-3-|3-3-3-3-3-3-3-3-|----------------|----------------|


ğŸŽ¸ Outro:

E |----------------|----------------|----------------|----------------|
B |----------------|----------------|2-2-2-----------|----------------|
F#|----------------|----------------|------5-5-5-3-3-|3-3-3-2-2-3-2---|
C#|3-3-3-3-3-3-3-3-|3-3-3-3-3-3-3-3-|----------------|--------------5-|

E |----------------|----------------|----------------|----------------|
B |----------------|----------------|2-2-2-----------|----------------|
F#|----------------|----------------|------5-5-5-3---|----------------|
C#|3-3-3-3-3-3-3-3-|3-3-3-3-3-3-3-3-|----------------|----------------|

[ Privacy | About us ]

Welcome to the guitar community

Why join and log in?
- Get songbook with favourite songs
- Get custom made front page
- Submit chords and tabs
- Submit guitar-cover videos
- Get a lot of thumbs up for your work

Songbook

Last visited songs

Site
Home
Search
Community
Submit chords
Submit video

Search tabs and chords

Browse by artist

A B C D E F G H I J K L M N O P Q R S T U V W X Y Z #


Menu

Search

Video

Bookmark

Login