Search tabs and chords

Browse bands and artists

A B C D E F G H I J K L M N O P Q R S T U V W X Y Z #

Log in

[ Register here | Forgot password ]

Guitar Tabs Explorer
Print

Bass tabs :

Isn't She Lovely bass tab by Stevie Wonder

  • Tuning: Standard
Difficulty: Easy

Intro
G|-------------|-------------|---------------------|x4
D|-------------|-------------|-------------2--2--2-|
A|-4----4------|----4----4-3-|-2----2--2h4---------|
E|----4----4-3-|-2----2------|----2----------------|

Verse: (Do this for all the rest of the song)
G|-------------|-------------|------4--------------|x2
D|----6--------|------4------|-------------2--2--2-|
A|-4----4------|----4----4-3-|-2--2----2h4------2--|
E|---------4-3-|-2-----------|---------------------|

G|---------------------------------------------------4----4-------|
D|-7--7--6h7-6--6----------------------------------4----4---4---2-|
A|---0-----------------4--4-2--2-----------2--2-2-------------2---|
E|-------------4---4h6-----------2--2-2--2------------------------|

G|-------------6-9-9---9-|
D|---------6-9-----------|
A|-----7-9------------7--|
E|-7-9-------------------|

Hope you'll like this version! Have fun!

************************************

| h  Hammer-on

Comments

Stevie Wonder bass tabs for Isnt she lovely