Log in

One click and you are in

Login with Facebook Login with Google

Why sign up and log in

Guitar Tabs Explorer
Wolfmother tabs for California queen

Guitar tabs with lyrics

Transcribed by Danleary

Hello Wolfmother.net!

Standard Tuning

Key

 ^  : Bend [1/4, 1/2, 1, etc.]
 v  : Bring bend back down
 /  : Slide into
 \  : Slide out of
 h  : Hammer on
 p  : Pull Off
(-) : Do not pick note
 =  : Vibrato
 X  : Mute
_____________________________________________________________________________


Intro/Chorus

Appears again at 0:46, 1:07, 1:50, 2:15, 2:25, 3:09

With wah-wah pedal.
                               Repeat
0:00

|-----------------------------------|
|-----------------------------------|
|-----------------------------------|
|-----------------------------------|
|-----------------------------------|
|--5h7-7-5h7-7-5h7-7-5h7-7-5h7-7-7--|

                                   Repeat
0:10
   A chord diagramBB
|---------------------------------------|
|---------------------------------------|
|---------------------------------------|
|--7h9-9--7h9-9--7h9-9--7h9-9--7h9-9-9--|
|--7h9-9--7h9-9--7h9-9--7h9-9--7h9-9-9--|
|--7---7--7---7--7---7--7---7--7---7-7--|

Guitar II

2:00                                                       2:09

|--------------------------------------------------------------|
|--12===========--12===========--12===========--12===========--|
|--------------------------------------------------------------|
|--------------------------------------------------------------|
|--------------------------------------------------------------|
|--------------------------------------------------------------|
_____________________________________________________________________________

Bridge

Appears again at 1:01, 2:10

With wah-wah pedal.

0:41                          0:44                    0:46
   A chord diagramD MajorD
|---------------------------------------------------------|
|---------------------------------------------------------|
|---------------------------------------------------------|
|--12---12---12---12---12-12---12---12---12--12-12---12---|
|--12---12---12---12---12-12---12---12---12--12-12---12---|
|--10---10---10---10---10-10---10---10---10--10-10---10---|
_____________________________________________________________________________


Verse

Appears again at 2:30
                                      Repeat 4X
1:12                                      1:19
   A chord diagramBB         A chord diagramD MajorD     A chord diagramBB    A chord diagramA augmentedA
|---------------------------------------------|
|---------------------------------------------|
|---------------------------------------------|
|--9----9----12----9----7----7----7--7--7--7--|
|--9----9----12----9----7----7----7--7--7--7--|
|--7----7----10----7----5----5----5--5--5--5--|

1:42                                                  1:50
   A chord diagramBB         A chord diagramD MajorD                A chord diagramE MajorE                       A chord diagramBB
|---------------------------------------------------------|
|---------------------------------------------------------|
|---------------------------------------------------------|
|--9----9----12------12-------14----14----14----14----9\--|
|--9----9----12------12-------14----14----14----14----9\--|
|--7----7----10--10--10--10---12----12----12----12----7\--|
_____________________________________________________________________________


Bridge II

2:20                          2:23               2:25
   A chord diagramD MajorD                           A chord diagramDbDb         A chord diagramC majorC
|----------------------------------------------------|
|----------------------------------------------------|
|----------------------------------------------------|
|--12---12---12---12---12-12---7---7---7--10-10--10--|
|--12---12---12---12---12-12---7---7---7--10-10--10--|
|--10---10---10---10---10-10---9---9---9--8--8---8---|
_____________________________________________________________________________


Solo

Coming soon!

3:19

|----------------------------------------------------|
|----------------------------------------------------|
|----------------------------------------------------|
|----------------------------------------------------|
|----------------------------------------------------|
|----------------------------------------------------|

Almost there ...

Sign in to get your own page with links to favourite songs and more. You are just one click away...

Login with Facebook Login with Google