Log in

One click and you are in

Login with Facebook Login with Google

Why sign up and log in

Guitar Tabs Explorer
Wire bass tabs for French film blurred

Bass tabs

  • Difficulty: Beginner
Tuning: Standard (E A D G)


Verse 1: Start at 0.04

G|--------------------------------------------------------------------|
D|--------------------------------------------------------------------|
A|-5\11-11-11-11-11-11-11-11-7-7-7-7-7-7-7-7-11-11-11-11-11-11-11-11/-|
E|--------------------------------------------------------------------|

G|--------------------------|
D|--------------------------|
A|-10-10-10-10-10-10-10-10\-|  x 4
E|--------------------------|

G|------------------------------------------------------------------------|
D|------------------------------------------------------------------------|
A|-5-5-5-5-5-5-5-5\11-11-11-11-7-9-11-7-7-7-7-7-7-7-7-11-11-11-11-7-9-11/-|
E|------------------------------------------------------------------------|


Chorus 1: Start at 0.29, play as triplets

G|----------|
D|----------| x16
A|-10-------|
E|----10-12-|


Verse 2: Start at 0.38

G|-------------------------------------------------------------------------|
D|-------------------------------------------------------------------------|
A|-/5-5-5-5-5-5-5-5\11-11-11-11-7-9-11-7-7-7-7-7-7-7-7-11-11-11-11-7-9-11/-|
E|-------------------------------------------------------------------------|


Chorus 2: Start at 0.47, play as triplets

G|----------|
D|----------| x16
A|-10-------|
E|----10-12-|


Bridge 1: 0.55

G|---------------------------------------------|
D|---------------------------------------------|
A|-\12--12-12-12/7--7-7-7\14-14-14-14/7-7-7-7\-|
E|---------------------------------------------|

G|-------------------------|
D|-------------------------|
A|-10-10-10-10-10-10-10-10-| x 2
E|-------------------------|

G|----------------------------------------------------|
D|----------------------------------------------------|
A|-12-12-12-12-12-12-12-12-12-10-10-10-10-10-10-10-10-|
E|----------------------------------------------------|

G|----------------------------|
D|----------------------------|
A|-12-12-12-12-12-12-12-12-12-| x 2
E|----------------------------|

G|-------------------------------------|
D|-------------------------------------|
A|-8-8-8-8-8-8-8-8-7-7-7-7-7-7-7-7-7-7-|
E|-------------------------------------|

G|----------------------------|
D|----------------------------|
A|-12-12-12-12-12-12-12-12-12-| x 3
E|----------------------------|


Verse 3: X 4

Start at 1.28, from there its exactly like the first verses and chorus !

G|----------------------------------------------------------------------------|
D|----------------------------------------------------------------------------|
A|-1-4-5-5-5-5-5-5-5-5\11-11-11-11-7-9-11-7-7-7-7-7-7-7-7-11-11-11-11-7-9-11/-|
E|----------------------------------------------------------------------------|

G|----------|
D|----------| x6
A|-10-------|
E|----10-12-|


Ending: Start at 2.22

G|--------------------------------------------------------------------------------|
D|--------------------------------------------------------------------------------|
A|-5-5-5-5-5-5-5-5\11-11-11-11-7-9-11-7-7-7-7-7-7-7-7-11-11-11-11-7-9-11/-10------|
E|--------------------------------------------------------------------------10-12-|

************************************


| /  Slide up
| \  Slide down


************************************

Almost there ...

Sign in to get your own page with links to favourite songs and more. You are just one click away...

Login with Facebook Login with Google