Log in

One click and you are in

Login with Facebook Login with Google

Why sign up and log in

Guitar Tabs Explorer
Wings bass tabs for Wild life

Bass tabs

0:20

Intro:
G|-----------------------|-----------------------|
D|-----------------------|-----------------------|
A|3----------------------|1----------------------|
E|-----------------------|-----------------------|

G|-----------------------|-----------------------|
D|----------------------3|3---3-------3----------|
A|-----------------------|--------------------1--|
E|1----------------------|-----------------------|

G|-----------------------|-----------------------|
D|-----------------------|-----------------------|
A|3----------------------|1----------------------|
E|-----------------------|-----------------------|

G|-----------------------|-----------------------|
D|-----------------------|3---3-------3----------|
A|-----------------------|-----------------------|
E|1----------------------|-----------------------|


Verse:
G|-----------------------|-----------------------|
D|-----------------------|-----------------------|
A|3----------------------|1----------------------|
E|-----------------------|-----------------------|

G|-----------------------|-----------------------|
D|-----------------------|-----------------------|
A|-----------------------|--------------------1--|
E|1-----------1---1------|1---1-----------3------|

G|-----------------------|-----------------------|
D|-----------------------|-----------------------|
A|3----------------------|1----------------------|
E|-----------------------|-----------------------|

G|-----------------------|-----------------------|
D|-----------------------|-----------------------|
A|-----------------------|--------------------1--|
E|1----------------------|1---1-------3----------|

G|-----------------------|-----------------------|
D|-----------------------|-----------------------|
A|3----------------------|1----------------------|
E|-----------------------|-----------------------|

G|-----------------------|-----------------------|
D|------------------3-3--|3-----------3----------|
A|-----------------------|-----------------------|
E|1----------------------|-----------------------|

G|-----------------------|-----------------------|
D|-----------------------|-----------------------|
A|3----------------------|1----------------------|
E|-----------------------|-----------------------|

G|-----------------------|-----------------------|
D|-----------------------|-----------------------|
A|-----------------------|-----------------------|
E|1-------------------1--|1---3------------------|

G|-----------------------|-----------------------|
D|-----------------------|-----------------------|
A|3----------------------|1----------------------|
E|-----------------------|-----------------------|

G|-----------------------|-----------------------|
D|------------------3-3--|3----------------------|
A|-----------------------|-----------------------|
E|1----------------------|-----------------------|

G|-----------------------|-----------------------|
D|-----------------------|-----------------------|
A|3----------------------|1----------------------|
E|-----------------------|-----------------------|

G|-----------------------|-----------------------|
D|----------------3---3--|3----------------------|
A|-----------------------|-----------------------|
E|1----------------------|------------1---1------|

G|-----------------------|-----------------------|
D|-----------------------|-----------------------|
A|3----------------------|1----------------------|
E|-----------------------|-----------------------|

G|-----------------------|-----------------------|
D|----------------3---3--|3----------------------|
A|-----------------------|------------1-------2--|
E|1----------------------|----3---3--------------|

Chorus:
G|-----------------------|-----------------------|
D|-----------------------|-----------------------|
A|3----------------------|1----------------------|
E|-----------------------|-----------------------|

G|-----------------------|-----------------------|
D|----------------3---3--|3-------3---3----------|
A|-----------------------|-----------------------|
E|1----------------------|-----------------------|

G|-----------------------|-----------------------|
D|-----------------------|-----------------------|
A|3----------------------|1----------------------|
E|-----------------------|-----------------------|

G|-----------------------|-----------------------|
D|-----------------------|-----------------------|
A|-----------------------|-----------------------|
E|1---------------1---1--|1-------1---1----------|


Solo:
G|-----------------------|-----------------------|
D|-----------------------|-----------------------|
A|3----------------------|1----------------------|
E|-----------------------|-----------------------|

G|-----------------------|-----------------------|
D|-----------------------|-----------------------|
A|------------0----------|3-----------5----------|
E|1----------------------|-----------------------|

G|-----------------------|-----------------------|
D|-----------------------|-----------------------|
A|3----------------------|1----------------------|
E|-----------------------|-----------------------|

G|-----------------------|-----------------------|
D|-----------------------|-----------------------|
A|-----------------------|-----------------------|
E|1-----------1---1------|1---1-------1----------|


Verse:
G|-----------------------|-----------------------|
D|-----------------------|-----------------------|
A|3-----------3----------|1-----------1----------|
E|-----------------------|-----------------------|

G|-----------------------|-----------------------|
D|--------3---3---3---3--|3-----------3----------|
A|-----------------------|-----------------------|
E|1----------------------|-----------------------|

G|-----------------------|-----------------------|
D|-----------------------|-----------------------|
A|3----------------------|1----------------------|
E|-----------------------|-----------------------|

G|-----------------------|-----------------------|
D|-----------------------|-----------------------|
A|-----------------------|-----------------------|
E|1---1---1---1---1---1--|1---1---1---1---1---1--|


Chorus:
G|-----------------------|-----------------------|
D|-----------------------|-----------------------|
A|3----------------------|1----------------------|
E|-----------------------|-----------------------|

G|-----------------------|-----------------------|
D|------------3---3------|3----------------------|
A|-----------------------|----0---3--------------|
E|1----------------------|-----------------------|

G|-----------------------|-----------------------|
D|-----------------------|-----------------------|
A|3----------------------|1----------------------|
E|-----------------------|-----------------------|

G|-----------------------|-----------------------|
D|-----------------------|-----------------------|
A|-----------------------|-----------------------|
E|1-----------1---1------|1-------1-------1------|


Solo:
G|-----------------------|-----------------------|
D|-----------------------|-----------------------|
A|3----------------------|1----------------------|
E|-----------------------|-----------------------|

G|-----------------------|-----------------------|
D|-----------------------|-----------------------|
A|------------0----------|3-----------5----------|
E|1----------------------|-----------------------|

G|-----------------------|-----------------------|
D|-----------------------|-----------------------|
A|3----------------------|1----------------------|
E|-----------------------|-----------------------|

G|-----------------------|-----------------------|
D|-----------------------|-----------------------|
A|-----------------------|-----------------------|
E|1-------------------1--|1-------1---1----------|


Chorus:
G|-----------------------|-----------------------|
D|-----------------------|-----------------------|
A|3----------------------|1----------------------|
E|-----------------------|-----------------------|

G|-----------------------|-----------------------|
D|------------3----------|------------3----------|
A|--------------------0--|3----------------------|
E|1----------------------|-----------------------|

G|-----------------------|-----------------------|
D|-----------------------|-----------------------|
A|3----------------------|1----------------------|
E|-----------------------|-----------------------|

G|-----------------------|-----------------------|
D|-----------------------|-----------------------|
A|------------0----------|3-----------5----------|
E|1----------------------|-----------------------|

G|-----------------------|-----------------------|
D|-----------------------|-----------------------|
A|3----------------------|1----------------------|
E|-----------------------|-----------------------|

G|-----------------------|-----------------------|
D|-----------------------|-----------------------|
A|------------0----------|3-----------5----------|
E|1----------------------|-----------------------|

G|-----------------------|-----------------------|
D|-----------------------|-----------------------|
A|3----------------------|1----------------------|
E|-----------------------|-----------------------|

G|-----------------------|-----------------------|
D|-----------------------|-----------------------|
A|------------0----------|3-----------5----------|
E|1----------------------|-----------------------|

G|-----------------------|-----------------------|
D|-----------------------|-----------------------|
A|3----------------------|1----------------------|
E|-----------------------|-----------------------|

G|-----------------------|-----------------------|
D|-----------------------|-----------------------|
A|------------0----------|33------33--55-----55--|
E|1----------------------|-----------------------|

G|-----------------------|-----------------------|
D|-----------------------|-----------------------|
A|6-------6--------------|6--------6-------------|
E|--8-------8------------|--6-----6---6----------|

G|-----------------------|-----------------------|
D|-----------------------|-----------------------|
A|------------0-------0--|3-------3---5----------|
E|1-------1--------------|-----------------------|

G|-----------------------|-----------------------|
D|-----------------------|-----------------------|
A|3----------------------|1----------------------|
E|-----------------------|-----------------------|

G|-----------------------|-----------------------|
D|-----------------------|-----------------------|
A|------------0----------|3-----------5----------|
E|1----------------------|-----------------------|

G|-----------------------|-----------------------|
D|-----------------------|-----------------------|
A|3----------------------|1----------------------|
E|-----------------------|-----------------------|

G|-----------------------|-----------------------|
D|-----------------------|-----------------------|
A|------------0----------|3-----------5----------|
E|1----------------------|-----------------------|

G|-----------------------|-----------------------|
D|-----------------------|-----------------------|
A|3----------------------|1----------------------|
E|-----------------------|-----------------------|

G|-----------------------|-----------------------|
D|-----------------------|-----------------------|
A|------------0----------|3-----------5----------|
E|1----------------------|-----------------------|

G|-----------------------|-----------------------|
D|-----------------------|-----------------------|
A|3----------------------|1----------------------|
E|-----------------------|-----------------------|

G|-----------------------|-----------------------|
D|-----------------------|-----------------------|
A|------------0----------|3-----------5----------|
E|1----------------------|-----------------------|

G|-----------------------|-----------------------|
D|-----------------------|-----------------------|
A|3-----------3----------|1-----------1----------|
E|-----------------------|-----------3-----------|

G|-----------------------|-----------------------|
D|-----------------------|-----------------------|
A|------------0-0--------|0---3-3-----0--3--5-6--|
E|1-1-----1------------1-|-----------------------|

G|-------|
D|-------|
A|6--5---|
E|-------|

G|-----------------------|-----------------------|
D|-----------------------|-----------------------|
A|3----------------------|1----------------------|
E|-----------------------|-----------------------|

G|-----------------------|-----------------------|
D|3----------------------|-----------------------|
A|------------0----------|3-----------5----------|
E|-----------------------|-----------------------|

G|-----------------------|-----------------------|
D|-----------------------|-----------------------|
A|3----------------------|1----------------------|
E|-----------------------|-----------------------|

G|-----------------------|-----------------------|
D|-----------------------|----------------3------|
A|------------0----------|3-------0---5----------|
E|1----------------------|-------1---------------|

G|-----------------------|-----------------------|
D|-----------------------|-----------------------|
A|3----------------------|1----------------------|
E|-----------------------|-----------------------|

G|-----------------------|-----------------------|
D|-----------------------|-----------------------|
A|------------0----------|3-----------5----------|
E|1----------------------|-----------------------|

G|-----------------------|-----------------------|
D|-----------------------|-----------------------|
A|3----------------------|1----------------------|

Almost there ...

Sign in to get your own page with links to favourite songs and more. You are just one click away...

Login with Facebook Login with Google