Log in

One click and you are in

Login with Facebook Login with Google

Why sign up and log in

Guitar Tabs Explorer
Wings bass tabs for Silly love songs

Bass tabs

SILLY LOVE SONGS        ;Words & Music by McCartney

TablEdited by Jan Bjorklund  <jani_bjorklund@yahoo.se>

Fingering and positions as suggested by TablEdit, please use common sense.


Tuning : E A D G 	Time Signature: 4/4

 |    |    |    |    |    |    |    |
|--------------------------------|--------------------------------|
|--------------------------------|--------------------------------|
|3---3---0---0-----------0-------|--------------------------------|
|----------------3---3-------3---|0---0---1---2---3---3---3---1---|

 |    |    |    |    |    |    |    |
|--------------------------------|------------------------0-------|
|--------------------------------|--------------------------------|
|--------------------------------|--------------------------------|
|1-----------1-------1---1-------|1---1---------------------------|

 |    |    |    |    |    |    |    |
|--------------------------------|--------------------------------|
|--------------------------------|--------------------------------|
|3---3---0---0-----------0-------|--------------------------------|
|----------------3-----------3---|0---0---1---2---3---3-------1---|

 |    |    |    |    |    |    |    |
|--------------------------------|--------------------------------|
|--------------------------------|----------------0---------------|
|----------------0---3-----------|0---3---------------3-----------|
|1-------3---4-------------------|--------------------------------|

 |    |    |    |    |    |    |    |
|--------------------------------|--------------------------------|
|--------------------------------|--------------------------------|
|3---3---0---0-----------0-------|--------------------------------|
|----------------3-----------3---|0---0---1---2---3---3-------1---|

 |    |    |    |    |    |    |    |
|--------------------------------|--------------------------------|
|--------------------------------|----------------0---------------|
|----------------0---3-----------|0---3---------------3-----------|
|1-------3---4-------------------|--------------------------------|

 |    |    |    |    |    |    |    |
|--------------------------------|--------------------------------|
|--------------------------------|--------------------------------|
|3---3---0---0-----------0-------|--------------------------------|
|----------------3-----------3---|0---0---1---2---3---3-------1---|

 |    |    |    |    |    |    |    |
|--------------------------------|--------------------------------|
|--------------------------------|----------------0---------------|
|----------------0---3-----------|0---3---------------3-----------|
|1-------3---4-------------------|--------------------------------|

 |    |    |    |    |    |    |    |
|--------------------------------|--------------------------------|
|--------------------------------|--------------------------------|
|--------------------------------|--------------------------------|
|0-------------------------------|--------------------------------|

 |    |    |    |    |    |    |    |
|--------------------------------|----------------------------2---|
|--------------------------------|--------------------------------|
|--------------------------------|--------------------------------|
|1-------------------------------|--------------------------------|

 |    |    |    |    |    |    |    |
|0-------------------------------|--------------------------------|
|--------------------------------|--------------------------------|
|--------------------------------|--------------------------------|
|--------------------------------|--------------------------------|

 |    |    |    |    |    |    |    |
|--------------------------------|0-------------------------------|
|----0-------2-------3-------4---|--------------------------------|
|--------------------------------|--------------------------------|
|--------------------------------|----3---3-----------------------|

 |    |    |    |    |    |    |    |
|--------------------------------|--------------------------------|
|--------------------------------|--------------------------------|
|3---3---0---0-----------0-------|--------------------------------|
|----------------3-----------3---|0---0---1---2---3---3-------1---|

 |    |    |    |    |    |    |    |
|--------------------------------|--------------------------------|
|--------------------------------|----------------0---------------|
|----------------0---3-----------|0---3---------------3-----------|
|1-------3---4-------------------|--------------------------------|

 |    |    |    |    |    |    |    |
|--------------------------------|--------------------------------|
|--------------------------------|--------------------------------|
|3---3---0---0-----------0-------|--------------------------------|
|----------------3-----------3---|0---0---1---2---3---3-------1---|

 |    |    |    |    |    |    |    |
|--------------------------------|--------------------------------|
|--------------------------------|----------------0---------------|
|----------------0---3-----------|0---3---------------3-----------|
|1-------3---4-------------------|--------------------------------|

 |    |    |    |    |    |    |    |
|--------------------------------|--------------------------------|
|--------------------------------|--------------------------------|
|3---3---0---0-----------0-------|--------------------------------|
|----------------3-----------3---|0---0---1---2---3---3-------1---|

 |    |    |    |    |    |    |    |
|--------------------------------|--------------------------------|
|--------------------------------|----------------0---------------|
|----------------0---3-----------|0---3---------------3-----------|
|1-------3---4-------------------|--------------------------------|

 |    |    |    |    |    |    |    |
|--------------------------------|--------------------------------|
|--------------------------------|--------------------------------|
|3---3---0---0-----------0-------|--------------------------------|
|----------------3-----------3---|0---0---1---2---3---3-------1---|

 |    |    |    |    |    |    |    |
|--------------------------------|--------------------------------|
|--------------------------------|----------------0---------------|
|----------------0---3-----------|0---3---------------3-----------|
|1-------3---4-------------------|--------------------------------|

 |    |    |    |    |    |    |    |
|--------------------------------|--------------------------------|
|--------------------------------|--------------------------------|
|3---3---0---0-----------0-------|--------------------------------|
|----------------3-----------3---|0---0---1---2---3---3-------1---|

 |    |    |    |    |    |    |    |
|--------------------------------|--------------------------------|
|--------------------------------|----------------0---------------|
|----------------0---3-----------|0---3---------------3-----------|
|1-------3---4-------------------|--------------------------------|

 |    |    |    |    |    |    |    |
|--------------------------------|--------------------------------|
|--------------------------------|--------------------------------|
|3---3---0---0-----------0-------|--------------------------------|
|----------------3-----------3---|0---0---1---2---3---3-------1---|

 |    |    |    |    |    |    |    |
|--------------------------------|--------------------------------|
|--------------------------------|----------------0---------------|
|----------------0---3-----------|0---3---------------3-----------|
|1-------3---4-------------------|--------------------------------|

 |    |    |    |    |    |    |    |
|--------------------------------|--------------------------------|
|--------------------------------|--------------------------------|
|--------------------------------|--------------------------------|
|0-------------------------------|--------------------------------|

 |    |    |    |    |    |    |    |
|--------------------------------|----------------------------2---|
|--------------------------------|--------------------------------|
|--------------------------------|--------------------------------|
|1-------------------------------|--------------------------------|

 |    |    |    |    |    |    |    |
|0-------------------------------|--------------------------------|
|--------------------------------|--------------------------------|
|--------------------------------|--------------------------------|
|--------------------------------|--------------------------------|

 |    |    |    |    |    |    |    |
|--------------------------------|0-------------------------------|
|----0-------2-------3-------4---|--------------------------------|
|--------------------------------|--------------------------------|
|--------------------------------|----3---3-----------------------|

 |    |    |    |    |    |    |    |
|--------------------------------|--------------------------------|
|--------------------------------|--------------------------------|
|3---3---0---0-----------0-------|--------------------------------|
|----------------3-----------3---|0---0---1---2---3---3-------1---|

 |    |    |    |    |    |    |    |
|--------------------------------|--------------------------------|
|--------------------------------|----------------0---------------|
|----------------0---3-----------|0---3---------------3-----------|
|1-------3---4-------------------|--------------------------------|

 |    |    |    |    |    |    |    |
|--------------------------------|--------------------------------|
|--------------------------------|--------------------------------|
|3---3---0---0-----------0-------|--------------------------------|
|----------------3-----------3---|0---0---1---2---3---3-------1---|

 |    |    |    |    |    |    |    |
|--------------------------------|--------------------------------|
|--------------------------------|----------------0---------------|
|----------------0---3-----------|0---3---------------3-----------|
|1-------3---4-------------------|--------------------------------|

 |    |    |    |    |    |    |    |
|--------------------------------|--------------------------------|
|--------------------------------|--------------------------------|
|--------------------------------|----0-------3-------0-----------|
|0-------------------------------|3-------------------------------|

 |    |    |    |    |    |    |    |
|--------------------------------|--------------------------------|
|0-------------------------------|--------------------------------|
|--------------------------------|3-------0---0-----------0-------|
|--------------------------------|----------------3---3-----------|

 |    |    |    |    |    |    |    |
|--------------------------------|--------------------------------|
|--------------------------------|--------------------------------|
|--------------------------------|----0-------3-------0-----------|
|0-------------------------------|3-------------------------------|

 |    |    |    |    |    |    |    |
|--------------------------------|--------------------------------|
|0-------0-------0-----------0---|--------0-------0-----------0---|
|------------------------3-------|------------------------0-------|
|--------------------------------|--------------------------------|

 |    |    |    |    |    |    |    |
|--------------------------------|--------------------------------|
|--------0-------0---0---0---0---|--------------------------------|
|--------------------------------|--------------------------------|
|--------------------------------|3---3---3---3---3---3---3---3---|

 |    |    |    |    |    |    |    |
|--------0-----------------------|--------------------------------|
|--------------------------------|--------------------------------|
|--------------------------------|3---3---0---0-----------0-------|
|3---3-----------3-------3---3---|----------------3-----------3---|

 |    |    |    |    |    |    |    |
|--------------------------------|--------------------------------|
|--------------------------------|--------------------------------|
|--------------------------------|----------------0---3-----------|
|0---0---1---2---3---3-------1---|1-------3---4-------------------|

 |    |    |    |    |    |    |    |
|--------------------------------|--------------------------------|
|----------------0---------------|--------------------------------|
|0---3---------------3-----------|3---3---0---0-----------0-------|
|--------------------------------|----------------3-----------3---|

 |    |    |    |    |    |    |    |
|--------------------------------|--------------------------------|
|--------------------------------|--------------------------------|
|--------------------------------|----------------0---3-----------|
|0---0---1---2---3---3-------1---|1-------3---4-------------------|

 |    |    |    |    |    |    |    |
|--------------------------------|--------------------------------|
|----------------0---------------|--------------------------------|
|0---3---------------3-----------|3---3---0---0-----------0-------|
|--------------------------------|----------------3-----------3---|

 |    |    |    |    |    |    |    |
|--------------------------------|--------------------------------|
|--------------------------------|--------------------------------|
|--------------------------------|----------------0---3-----------|
|0---0---1---2---3---3-------1---|1-------3---4-------------------|

 |    |    |    |    |    |    |    |
|--------------------------------|--------------------------------|
|----------------0---------------|--------------------------------|
|0---3---------------3-----------|3---3---0---0-----------0-------|
|--------------------------------|----------------3-----------3---|

 |    |    |    |    |    |    |    |
|--------------------------------|--------------------------------|
|--------------------------------|--------------------------------|
|--------------------------------|----------------0---3-----------|
|0---0---1---2---3---3-------1---|1-------3---4-------------------|

 |    |    |    |    |    |    |    |
|--------------------------------|--------------------------------|
|----------------0---------------|--------------------------------|
|0---3---------------3-----------|3-------------------------------|
|--------------------------------|--------------------------------|

 |    |    |    |    |    |    |    |
|--------------------------------|--------------------------------|
|0-------------------------------|3-------------------------------|
|--------------------------------|--------------------------------|
|--------------------------------|--------------------------------|

 |    |    |    |    |    |    |    |
|--------------------------------|--------------------------------|
|--------------------------------|--------------------------------|
|--------------------------------|3-------------------------------|
|----1-------1---1-------3-------|--------------------------------|

 |    |    |    |    |    |    |    |
|--------------------------------|--------------------------------|
|0-------------------------------|3-------------------------------|
|--------------------------------|--------------------------------|
|--------------------------------|--------------------------------|

 |    |    |    |    |    |    |    |
|--------------------------------|--------------------------------|
|--------------------------------|--------------------------------|
|--------------------------------|3-------------------------------|
|----1-------1---1-------3-------|--------------------------------|

 |    |    |    |    |    |    |    |
|--------------------------------|--------------------------------|
|0-------------------------------|3-------------------------------|
|--------------------------------|--------------------------------|
|--------------------------------|--------------------------------|

 |    |    |    |    |    |    |    |
|--------------------------------|------------0-------0-----------|
|--------------------------------|--------------------------------|
|--------------------------------|3-----------------------3-------|
|----1-------1---1-------3-------|--------------------------------|

 |    |    |    |    |    |    |    |
|------------4-------4-----------|------------5-------5-----------|
|2-----------------------2-------|3-----------------------3-------|
|--------------------------------|--------------------------------|
|--------------------------------|--------------------------------|

 |    |    |    |    |    |    |    |
|------------------------0-------|--------------------------------|
|----3-------3---3---------------|--------------------------------|
|--------------------------------|3---3---0---0-----------0-------|
|--------------------------------|----------------3-----------3---|

 |    |    |    |    |    |    |    |
|--------------------------------|--------------------------------|
|--------------------------------|--------------------------------|
|--------------------------------|----------------0---3-----------|
|0---0---1---2---3---3-------1---|1-------3---4-------------------|

 |    |    |    |    |    |    |    |
|--------------------------------|--------------------------------|
|----------------0---------------|--------------------------------|
|0---3---------------3-----------|3---3---0---0-----------0-------|
|--------------------------------|----------------3-----------3---|

 |    |    |    |    |    |    |    |
|--------------------------------|--------------------------------|
|--------------------------------|--------------------------------|
|--------------------------------|----------------0---3-----------|
|0---0---1---2---3---3-------1---|1-------3---4-------------------|

 |    |    |    |    |    |    |    |
|--------------------------------|--------------------------------|
|----------------0---------------|--------------------------------|
|0---3---------------3-----------|3---3---0---0-----------0-------|
|--------------------------------|----------------3-----------3---|

 |    |    |    |    |    |    |    |
|--------------------------------|--------------------------------|
|--------------------------------|--------------------------------|
|--------------------------------|----------------0---3-----------|
|0---0---1---2---3---3-------1---|1-------3---4-------------------|

 |    |    |    |    |    |    |    |
|--------------------------------|--------------------------------|
|----------------0---------------|--------------------------------|
|0---3---------------3-----------|3---3---0---0-----------0-------|
|--------------------------------|----------------3-----------3---|

 |    |    |    |    |    |    |    |
|--------------------------------|--------------------------------|
|--------------------------------|--------------------------------|
|--------------------------------|----------------0---3-----------|
|0---0---1---2---3---3-------1---|1-------3---4-------------------|

 |    |    |    |    |    |    |    |
|--------------------------------|--------------------------------|
|----------------0---------------|--------------------------------|
|0---3---------------3-----------|3-------------------------------|
|--------------------------------|--------------------------------|

 |    |    |    |    |    |    |    |
|--------------------------------|--------------------------------|
|2-------------------------------|3-------------------------------|
|--------------------------------|--------------------------------|
|--------------------------------|--------------------------------|

 |    |    |    |    |    |    |    |
|--------------------------------|--------------------------------|
|--------------------------------|--------------------------------|
|--------------------------------|3-------------------------------|
|--------------------------------|--------------------------------|

 |    |    |    |    |    |    |    |
|--------------------------------|--------------------------------|
|2-------------------------------|3-------------------------------|
|--------------------------------|--------------------------------|
|--------------------------------|--------------------------------|

 |    |    |    |    |    |    |    |
|--------------------------------|--------------------------------|
|--------------------------------|--------------------------------|
|--------------------------------|3-------------------------------|
|--------------------------------|--------------------------------|

 |    |    |    |    |    |    |    |
|--------------------------------|--------------------------------|
|2-------------------------------|3-------------------------------|
|--------------------------------|--------------------------------|
|--------------------------------|--------------------------------|

 |    |    |    |    |    |    |    |
|--------------------------------|--------------------------------|
|--------------------------------|--------------------------------|
|--------------------------------|3-------------------------------|
|1-------------------------------|--------------------------------|

 |    |    |    |    |    |    |    |
|--------------------------------|--------------------------------|
|2-------------------------------|3-------------------------------|
|--------------------------------|--------------------------------|
|--------------------------------|--------------------------------|

 |    |    |    |    |    |    |    |
|--------------------------------|--------------------------------|
|--------------------------------|--------------------------------|
|--------------------------------|3-----------3-------3-----------|
|1-------------------------------|--------------------------------|

 |    |    |    |    |    |    |    |
|--------------------------------|--------------------------------|
|2-------------------2-------2---|3-------------------3-------3---|
|--------------------------------|--------------------------------|
|--------------------------------|--------------------------------|

 |    |    |    |    |    |    |    |
|--------------------------------|------------0-------0-----------|
|--------------------------------|--------------------------------|
|--------------------------------|3-----------------------3-------|
|----1-------1---1-------3-------|--------------------------------|

 |    |    |    |    |    |    |    |
|------------4-------4-----------|------------5-------5-----------|
|2-----------------------2-------|3-----------------------3-------|
|--------------------------------|--------------------------------|
|--------------------------------|--------------------------------|

 |    |    |    |    |    |    |    |
|--------------------------------|------------0-------0-----------|
|--------------------------------|--------------------------------|
|--------------------------------|3-----------------------3-------|
|----1-------1---1-------3-------|--------------------------------|

 |    |    |    |    |    |    |    |
|------------4-------4-----------|------------5-------5-----------|
|2-----------------------2-------|3-----------------------3-------|
|--------------------------------|--------------------------------|
|--------------------------------|--------------------------------|

 |    |    |    |    |    |    |    |
|--------------------------------|------------0-------0-----------|
|--------------------------------|--------------------------------|
|--------------------------------|3-----------------------3-------|
|----1-------1---1-------3-------|--------------------------------|

 |    |    |    |    |    |    |    |
|------------4-------4-----------|------------5-------5-----------|
|2-----------------------2-------|3-----------------------3-------|
|--------------------------------|--------------------------------|
|--------------------------------|--------------------------------|

 |    |    |    |    |    |    |    |
|--------------------------------|--------------------------------|
|--------------------------------|--------------------------------|
|--------------------------------|3---3---0---0-----------0-------|
|----1-------1---1-------3-------|----------------3-----------3---|

 |    |    |    |    |    |    |    |
|--------------------------------|--------------------------------|
|--------------------------------|--------------------------------|
|--------------------------------|----------------0---3-----------|
|0---0---1---2---3---3-------1---|1-------3---4-------------------|

 |    |    |    |    |    |    |    |
|------------------------0-------|--------------------------------|
|--------------------------------|--------------------------------|
|0-------------------------------|3---3---0---0-----------0-------|
|----1---------------------------|----------------3-----------3---|

 |    |    |    |    |    |    |    |
|--------------------------------|--------------------------------|
|--------------------------------|--------------------------------|
|--------------------------------|----------------0---3-----------|
|0---0---1---2---3---3-------1---|1-------3---4-------------------|

 |    |    |    |    |    |    |    |
|--------------------------------|--------------------------------|
|----------------0---------------|--------------------------------|
|0---3---------------3-----------|3---3---0---0-----------0-------|
|--------------------------------|----------------3-----------3---|

 |    |    |    |    |    |    |    |
|--------------------------------|--------------------------------|
|--------------------------------|--------------------------------|
|--------------------------------|----------------0---3-----------|
|0---0---1---2---3---3-------1---|1-------3---4-------------------|

 |    |    |    |    |    |    |    |
|--------------------------------|--------------------------------|
|----------------0---------------|--------------------------------|
|0---3---------------3-----------|3---3---0---0-----------0-------|
|--------------------------------|----------------3-----------3---|

 |    |    |    |    |    |    |    |
|--------------------------------|--------------------------------|
|--------------------------------|--------------------------------|
|--------------------------------|----------------0---3-----------|
|0---0---1---2---3---3-------1---|1-------3---4-------------------|

 |    |    |    |    |    |    |    |
|--------------------------------|--------------------------------|
|----------------0---------------|--------------------------------|
|0---3---------------3-----------|--------------------------------|
|--------------------------------|0-------------------------------|

Almost there ...

Sign in to get your own page with links to favourite songs and more. You are just one click away...

Login with Facebook Login with Google