Log in

One click and you are in

Login with Facebook Login with Google

Why sign up and log in

Guitar Tabs Explorer
Wings chords for Must do something about it ukulele

Must Do Something About It Ukulele chords by Wings

Wings chords for Must do something about it ukulele

Guitar chords with lyrics

  • Capo on 1st
Tuning: G C E A (G C E A)

Difficulty: Intermediate


Coda:
 Eb             Ab Bb  Eb Bb Ab Gb  Ab Bb Eb Eb
 1 + 2 + 3 + 4 + 1 + 2 + 3 + 4 + 1 + 2 + 3 + 4 + 1 + 2 + 3 + 4 +
A|1---------------|----------3---5-|--6---5---3---1-|--3---5---6---1-|
E|3---------------|----------4---6-|--6---6---4---2-|--4---6---6---3-|
C|3---------------|----------3---5-|--7---5---3---1-|--3---5---7---3-|
g|0---------------|----------------|----------------|--------------0-|
 (Eb)            Ab Bb  Eb Bb Ab Eb  Ab Bb Eb Eb
 1 + 2 + 3 + 4 + 1 + 2 + 3 + 4 + 1 + 2 + 3 + 4 + 1 + 2 + 3 + 4 +
A2:--------------|----------3---5-|--6---5---3---1-|--3---5---6---1-|
E3:--------------|----------4---6-|--6---6---4---3-|--4---6---6---3-|
C2:--------------|----------3---5-|--7---5---3---3-|--3---5---7---3-|
g0:--------------|----------------|----------------|--------------0-|
       Eb7 Eb
 1 + 2 + 3 + 4 + 1 + 2 + 3 + 4 +
A|--------1-----1-|----------------|
E|---------3----3-|----------------|
C|----------3-1-3-|----------------|
g|--------------0-|----------------|

---------------------------------------------------------------------------


Intro: freely
| Em | % | Fm | Fm Fm7 | Ebsus2 Eb |


Verse:
Eb           Bb      C7
I've just seen another sunset on my own
Bbm   C        Fm
All day long I've been alone
   Bb7sus4          Bb7
And I must do something about it
    Bb7sus4          Bb7
Yes, I must do something about it


Verse:
Eb          Bb        C7
Played another losing card game with myself
Bbm  C     Fm
Lonely joker on a shelf
   Bb7sus4          Bb7
And I must do something about it
    Bb7sus4          Bb7
Yes, I must do something about it


Bridge:
Bbm7        | Ebsus4 Eb |
No one on the party line
Abm7         | Db7sus4 Db7 |
No one seems to need a dime
Gb7          Ebm       | Bb7sus4 | Bb7 |
No one even knows that I'm feeling this way
Bbm7          | Ebsus4 Eb |
No one seems to need my vote
Abm7         | Db7sus4 Db7 |
No one has to change a note
Gb7          Ebm
No one here to hold my coat
      | Bb7sus4 | Bb7 |
Oh, what a day, oh, oh, oh


Verse:
Eb            Bb     C7
I've just watched another movie on T.V.
Bbm   C        Fm
No one's in the house but me
   Bb7sus4          Bb7
And I must do something about it
    Bbm7            | Ebsus4 Eb |
Yes, I must do something about i-i-it
    Ab   Gm Fm   Fm7 | Bb7sus4 | Bb7 |
Oh, oh, oh, oh, oh, oh, something about   it


Verse:
Eb            Bb      C7
I've just dialed another number on my phone
Bbm   C        Fm
All day long I've been alone
   Bb7sus4          Bb7
And I must do something about it
    Bb7sus4          Bb7
Yes, I must do something about it


Verse:
Eb           Bb      C7
I've just seen another sunset on my own
Bbm   C        Fm
All day long I've been alone
   Bb7sus4          Bb7
And I must do something about it
    Bb7sus4          Bb7
Yes, I must do something about it


Outro:
Bb7sus4          Bb7
Must do something about it
    Bb7sus4          Bb7
Yes, I must do something about it

| Bb7sus4 | Bb7 | Bb7sus4 | Bb7 |
| Bb7sus4 | Bb7 | Eb :


Coda:
| Eb | Eb Ab Bb | Eb Bb Ab Gb | Ab Bb Eb Eb |
| Eb | Eb Ab Bb | Eb Bb Ab Eb | Ab Bb Eb Eb |  Eb7 Eb

Almost there ...

Sign in to get your own page with links to favourite songs and more. You are just one click away...

Login with Facebook Login with Google