Log in

One click and you are in

Login with Facebook Login with Google

Why sign up and log in

Guitar Tabs Explorer
Wings bass tabs for Let me roll it

Bass tabs

Intro:
 Q=86
 6/8
 Gtr I
  W    Q.  E a E E  a Q.  Q.   Q.  E a E E
G|--------|--------------|-------------|--------------|
D|--------|------------2-|-2s4---------|------------2-|
A|--------|-0------3s4---|-------------|-0------3s4---|
E|--------|--------------|-------------|--------------|
 a Q a E Q E  Q.  Q a E  Q.  E a E E  Q.  Q a E
G|---------------|-------------|--------------|-------------|
D|-2s4--4s6-4--2-|-------------|------------2-|-------------|
A|---------------|-------------|-0------3s4---|-------------|
E|---------------|-0-------3s4-|--------------|-0-------3s4-|


  Q.  E a E E  Q.  Q a E  Q.  E a E E  Q.  Q a E
G|--------------|-------------|--------------|-------------|
D|------------2-|-------------|------------2-|-------------|
A|-0------3s4---|-------------|-0------3s4---|-------------|
E|--------------|-0-------3s4-|--------------|-0-------3s4-|


  Q.  E a E E  E E E E E E  E E H   S E. +H
G|--------------|-------------|----------|-------------|
D|------------2-|-------------|----------|-------------|
A|-0------3s4---|-------------|----------|-------------|
E|--------------|-0-0-0-0-0-0-|-0--------|-0-2--(2)----|


                             1st Verse:
  +H   +E E  H.    H.    H.    H.     H  +E E
G|--------------|---------|---------|---------|---------||--------------|
D|--------------|---------|---------|---------|---------||--------------|
A|--------------|---------|---------|---------|---------||--------------|
E|-(2)----(2)---|-0-------|-0-------|-2-------|-2-------||-0----(0)-----|

  H  +E E  H  +E E  H  +E E  H  +E E  H.
G|------------|------------|------------|------------|-------|
D|------------|------------|------------|------------|-------|
A|------------|------------|------------|------------|-------|
E|-0----(0)---|-2----(2)---|-2----(2)---|-0----(0)---|-0-----|


  H  +E E  Q.  Q.   E E E Q E  E E E Q E
G|------------|-----------|------------|------------|
D|------------|-----------|----------2-|-4-4-4-4----|
A|------------|-----------|-0-0-0-0----|------------|
E|-2----(2)---|-2----4----|------------|------------|


               Chorus:
 E E E Q E  E S S E Q E  Q.  Q E  Q.  a E E E  Q.  Q a E
G|------------|--------------||-----------|--------------|--------------|
D|----------2-|-4-4-4-6-4--2-||-----------|----------2-4-|--------------|
A|-0-0-0-0----|--------------||---------2-|-0----3s4-----|--------------|
E|------------|--------------||-0----4----|--------------|-0-------3s4--|


 Q E a Q E  Q.  Q a E  Q.  E a E E  Q.  Q a E  Q.  E a E E
G|-------------|-------------|--------------|-------------|---------------|
D|-----------2-|-------------|------------2-|-------------|------------2--|
A|-0--0-3s4----|-------------|-0------3s4---|-------------|-0------3s4----|
E|-------------|-0-------3s4-|--------------|-0-------3s4-|---------------|


              Interlude:
  E E E E E E  E E H    S E. +H    +H   +E E
G|-------------|----------||-------------|--------------|
D|-------------|----------||-------------|--------------|
A|-------------|----------||-------------|--------------|
E|-0-0-0-0-0-0-|-0--------||-0-2--(2)----|-(2)----(2)---|


                      2nd Verse:
  H.    H.    Q.  Q.   H  Q   Q.  Q.
G|---------|---------|-----------|---------||-----------|
D|---------|---------|-----------|---------||-----------|
A|---------|---------|-----------|---------||-----------|
E|-0-------|-0-------|-2---------|-2-------||-0---------|


  H  Q  Q.  Q.   H  +E E  Q.  Q.   Q.  Q.   Q.  Q.
G|---------|-----------|------------|-----------|-----------|------------|
D|---------|-----------|------------|-----------|-----------|------------|
A|---------|-----------|------------|-----------|-----------|------------|
E|-0-------|-2---------|-2----(2)---|-0---------|-0---------|-2----------|


  Q.  E E E  Q E Q a E  E E E Q +E  E Q Q E  E E a E Q E
G|------------|-------------|--------------|-----------|--------------||
D|------------|---------1s2-|-4---4-4--(4)-|---------2-|-4-4-5s6-4--2-||
A|------------|-0--0-0------|--------------|-0-0--0----|--------------||
E|-2------2-4-|-------------|--------------|-----------|--------------||


 Chorus:
  Q.  a Q E  Q.  Q E  Q.  Q a E  Q.  E a E E  Q.  Q a E
G|-------------|-----------|-------------|--------------|-------------|
D|-------------|---------2-|-------------|------------2-|-------------|
A|-----------2-|-0----4----|-------------|-0------3s4---|-------------|
E|-0----3s4----|-----------|-0-------3s4-|--------------|-0-------3s4-|


  Q.  E a E E  Q.  Q a E  Q.  E a E E  E E E E E E
G|--------------|-------------|--------------|--------------|
D|------------2-|-------------|------------2-|--------------|
A|-0------3s4---|-------------|-0------3s4---|--------------|
E|--------------|-0-------3s4-|--------------|-0-0-0-0-0-0--|


       Interlude:
  E E H    S E. +H    +Q.  Q.   Q.  Q.   H  +E E
G|----------||-------------|------------|-----------|------------|
D|----------||-------------|------------|-----------|------------|
A|----------||-------------|------------|-----------|------------|
E|-0--------||-0-2--(2)----|-(2)--------|-0---------|-0----(0)---|


  Q.  Q.   H  Q  Q.  Q.   Q.  Q.   H  Q  H  Q
G|-----------|---------|-----------|-----------|---------|-----------|
D|-----------|---------|-----------|-----------|---------|-----------|
A|-----------|---------|-----------|-----------|---------|-----------|
E|-2---------|-2-------|-0---------|-0---------|-2-------|-2---------|


  Q.  Q.   H  +E E  Q.  Q.   H  +E E  Q Q E E
G|-----------|------------|-----------|------------|-----------|
D|-----------|------------|-----------|------------|-----------|
A|-----------|------------|-----------|------------|-0-----0-4-|
E|-0---------|-0----(0)---|-2---------|-2----(2)---|-----------|


                        Chorus:
  a Q.  Q E  E E E E E a E  E E a E Q E  E E E Q E
G|-------------|---------------|--------------||-------------|
D|-2s4----4--2-|---------------|-4-4-4s6-4--2-||-------------|
A|-------------|-0-0-0-0---3s4-|--------------||-------------|
E|-------------|---------------|--------------||-0-0-0-0--4--|


  Q E E E E  Q.  Q a E  Q E a Q E  Q.  Q a E  Q E a Q E
G|------------|-------------|-------------|-------------|-------------|
D|----------4-|-------------|-----------2-|-------------|-----------2-|
A|-0----4-----|-------------|-0--0-3s4----|-------------|-0--0-3s4----|
E|------------|-0----0--3s4-|-------------|-0----0--3s4-|-------------|


                     7/8
  Q.  +E E E  Q E Q E  E E E E E E  E Q.  Q.
G|--------------|-----------|-------------|-------------||
D|--------------|---------2-|-------------|-------------||
A|------------2-|-0--0-4----|-------------|-------------||
E|-0----(0)-4---|-----------|-0-0-0-0-0-0-|-0-----------||


 Interlude:
 6/8
  W    W    H  Q  H  Q  H  Q  H  Q
G|--------|--------|---------|---------|---------|----------||
D|--------|--------|---------|---------|---------|----------||
A|--------|--------|---------|---------|---------|----------||
E|--------|--------|-0-------|-0-------|-2-------|-2--------||


 3rd Verse:
  H  Q  H  Q  H  Q  H  Q  H  Q  H  Q
G|---------|---------|---------|---------|---------|-----------|
D|---------|---------|---------|---------|---------|-----------|
A|---------|---------|---------|---------|---------|-----------|
E|-0-------|-0-------|-2-------|-2-------|-0-------|-0---------|


  H  Q  Q.  Q E  Q E E a E E  Q E Q E  Q +E E E E
G|---------|-----------|--------------|-----------|---------------|
D|---------|-----------|------------2-|-4----4----|------------2--|
A|---------|-----------|-0----0-3s4---|-----------|-0--(0)-0------|
E|-2-------|-2-------2-|--------------|---------4-|---------------|


       Chorus:
  Q E Q E  Q +E E E E  Q E a Q E  Q +E E E a E
G|-----------||--------------|-------------|----------------|
D|-4--6-4--2-||--------------|-----------4-|----------------|
A|-----------||--------------|-0--0-3s4----|----------------|
E|-----------||-0--(0)-0---4-|-------------|-0--(0)-0---3s4-|


  Q E a Q E  Q +E E E a E  Q E a Q E  Q +E E E a E  Q E E E E
G|-------------|----------------|-------------|----------------|------------|
D|-----------2-|----------------|-----------2-|----------------|--------2-4-|
A|-0--0-3s4----|----------------|-0--0-3s4----|----------------|-0--0-4-----|
E|-------------|-0--(0)-0---3s4-|-------------|-0--(0)-0---3s4-|------------|


              Outro:
  E E E E E E  E E H    S E S E +Q.   Q.  E S S S S
G|-------------|----------||---------------|-----------------|
D|-------------|----------||---------------|-----------------|
A|-------------|----------||---------------|-----------------|
E|-0-0-0-0-0-0-|-0--------||-0-2-0-2-(2)---|--------0-2-3-4--|


  Q.  Q.   Q.  Q.   Q.  Q.   H  Q  H  Q  H  Q
G|-----------|-----------|-----------|---------|---------|-----------|
D|-----------|-----------|-----------|---------|---------|-----------|
A|-----------|-----------|-----------|---------|---------|-----------|
E|-0----0----|-0---------|-2---------|-2-------|-0-------|-0---------|


  H  Q  H  Q  Q.  Q.   H  Q
G|---------|---------|-----------|---------|
D|---------|---------|-----------|---------|
A|---------|---------|-----------|---------|
E|-2-------|-2-------|-0---------|-0-------|


  Q.  Q.   Q.  Q.   Q.  Q.
G|-----------|-----------|------------*|
D|-----------|-----------|------------*|
A|-----------|-----------|------------*|
E|-2---------|-2---------|-0----------*|

Almost there ...

Sign in to get your own page with links to favourite songs and more. You are just one click away...

Login with Facebook Login with Google