Log in

One click and you are in

Login with Facebook Login with Google

Why sign up and log in

Guitar Tabs Explorer
Wings bass tabs for I am your singer

Bass tabs

Tuning: Standard (E A D G)

Key: Ab

Difficulty: Intermediate
Intro:
G|---------------------------------|---------------------------------|
D|---------------------------------|---------------------------------|
A|---------------------------------|------------------------6--------|
E|---------------------------------|---------------------------------|


Verse:
G|---------------------------------|---------------------------------|
D|6--------------------------------|---------------------------------|
A|----------------------------6----|------------------------6--------|
E|---------------------------------|4-----------4-------7------------|

G|---------------------------------|---------------------------------|
D|5--------------------------------|---------------------------------|
A|----------------------------5----|------------------------6--------|
E|---------------------------------|3-----------3-------7------------|

G|---------------------------------|---------------------------------|
D|4--------------------------------|---------------------------------|
A|----------------------------4----|------------------------4--------|
E|---------------------------------|2-----------2-------5------------|

G|---------------------------------|---------------------------------|
D|---------------------------------|---------------------------------|
A|7--------------------------------|------------------------6--------|
E|---------------------------------|---------------------------------|

G|---------------------------------|---------------------------------|
D|6--------------------------------|---------------------------------|
A|----------------------------6----|------------------------6--------|
E|---------------------------------|4-----------4-------7------------|

G|---------------------------------|---------------------------------|
D|5--------------------------------|---------------------------------|
A|---------------------------------|------------------------6--------|
E|---------------------------------|3-------------------7------------|

G|---------------------------------|---------------------------------|
D|4--------------------------------|---------------------------------|
A|---------------------------------|------------------------4--------|
E|---------------------------------|2-----------2-------5------------|

G|---------------------------------|---------------------------------|
D|---------------------------------|---------------------------------|
A|7--------------------------------|7---------------0-------1--------|
E|---------------------------------|----4----------------------------|

Chorus:
G|---------------------------------|---------------------------------|
D|---------------------------------|------------------------4--------|
A|2-----------2-----------4---\----|2-----------2--------------------|
E|---------------------------------|---------------------------------|

G|---------------------------------|---------------------------------|
D|2-----------2-----------4---\----|2-----------2--------------------|
A|---------------------------------|------------------------4---\----|
E|---------------------------------|---------------------------------|

G|---------------------------------|---------------------------------|
D|---------------------------------|------------------------4---\----|
A|2-----------2-----------4---\----|2-----------2--------------------|
E|---------------------------------|---------------------------------|

G|---------------------------------|---------------------------------|
D|2--------------------------------|---------------------------------|
A|------------5--------------------|4-----------3--------------------|
E|---------------------------------|---------------------------------|

G|---------------------------------|---------------------------------|
D|4-----------4-----------4--------|7-----------7-------5---7--------|
A|--------------------4------------|---------------------------------|
E|---------------------------------|---------------------------------|

G|------------9-------9---6--------|---------------------------------|
D|---------------------------------|---------------------------------|
A|7--------------------------------|7---\-------------------6--------|
E|---------------------------------|---------------------------------|


Verse:
G|---------------------------------|---------------------------------|
D|6--------------------------------|---------------------------------|
A|----------------------------6----|------------------------6--------|
E|---------------------------------|4-----------4-------7------------|

G|---------------------------------|---------------------------------|
D|5--------------------------------|---------------------------------|
A|---------------------------------|------------------------6--------|
E|---------------------------------|3-----------3-------7------------|

G|---------------------------------|---------------------------------|
D|4--------------------------------|---------------------------------|
A|----------------------------4----|------------------------4--------|
E|---------------------------------|2---2-------2-------5------------|

G|---------------------------------|---------------------------------|
D|---------------------------------|---------------------------------|
A|7--------------------------------|------------------------6--------|
E|----------------------------7-\--|0-------4------------------------|


Chorus:
G|---------------------------------|---------------------------------|
D|---------------------------------|------------------------2--------|
A|2-----------2-----------4---\----|2-----------2-------4------------|
E|---------------------------------|---------------------------------|

G|---------------------------------|---------------------------------|
D|2-----------2-----------4---\----|2-----------2-------4---2--------|
A|---------------------------------|---------------------------------|
E|---------------------------------|---------------------------------|

G|---------------------------------|---------------------------------|
D|---------------------------------|----------------2---4---\--------|
A|2-----------2-----------4---\----|2-------4------------------------|
E|---------------------------------|---------------------------------|

G|---------------------------------|---------------------------------|
D|2--------------------------------|---------------------------------|
A|------------5--------------------|4-----------3--------------------|
E|---------------------------------|---------------------------------|

G|---------------------------------|---------------------------------|
D|4-------4---4---------------6----|7-----------7-----------7--------|
A|--------------------4---5--------|---------------------------------|
E|---------------------------------|---------------------------------|

G|------------9-------9---6--------|---------------------------------|
D|---------------------------------|9--------------------------------|
A|7--------------------------------|------------------------6--------|
E|---------------------------------|---------------------------------|


Verse:
G|---------------------------------|---------------------------------|
D|6--------------------------------|---------------------------------|
A|----------------------------6----|------------------------6--------|
E|---------------------------------|4-----------4-------7------------|

G|---------------------------------|---------------------------------|
D|5--------------------------------|---------------------------------|
A|---------------------------------|------------------------6--------|
E|---------------------------------|3-----------3-------7------------|

G|---------------------------------|---------------------------------|
D|4--------------------------------|---------------------------------|
A|----------------------------4----|------------------------4--------|
E|---------------------------------|2---2-------2-------5------------|


Chorus:
G|---------------------------------|---------------------------------|
D|---------------------------------|---------------------------------|
A|7-----------7--------------------|4-----------4--------------------|
E|---------------------------------|---------------------------------|

G|---------------------------------|---------------------------------|
D|2--------------------------------|---------------------------------|
A|------------5--------------------|4-----------3--------------------|
E|---------------------------------|---------------------------------|

G|---------------------------------|---------------------------------|
D|4-------4---4---------------6----|7-----------7-----------7---9----|
A|--------------------4---5--------|--------------------7------------|
E|---------------------------------|---------------------------------|

G|----------------9p6--------------|---------------------------------|
D|---------------------------------|---------------------------------|
A|7-------7------------------------|7--------------------------------|
E|---------------------------------|---------------------------------|

***********************************

\ = slide down
p = pull of

***********************************

Almost there ...

Sign in to get your own page with links to favourite songs and more. You are just one click away...

Login with Facebook Login with Google