Log in

One click and you are in

Login with Facebook Login with Google

Why sign up and log in

Guitar Tabs Explorer
Wings bass tabs for Babys request

Bass tabs

4/4


Intro:
G|------2-------------------------|--------------------------------|
D|--------------------------------|--------------------------------|
A|--------0-0-0-0-0-0-0-0-0-0-0-0-|0-0-0-0-0-0-0-0-0-0-0-0-0-0-----|
E|--------------------------------|--------------------------------|

G|------1-------------------------|--------------------------------|
D|--------------------------------|--------------------------------|
A|--------------------------------|--------------------------------|
E|--------4-------4-4-4-4-4-4-4-4-|4-4-4-4-4-----------------------|

G|--------------------------------|--------------------------------|
D|--------------------------------|--------------------------------|
A|--------------------------------|--------------------------------|
E|--------------------------------|--------------------------------|


Verse:
G|--------------------------------|--------------------------------|
D|--------------------------------|--------------0-----------------|
A|--------------2-------1-------0-|--------------------------------|
E|3-------------------------------|--------------------------------|

G|--------------------------------|--------------------------------|
D|--------------------------------|--------------------------------|
A|--------------2-----------------|3-------------3---------------3-|
E|3---------------------0---------|--------------------------------|

G|--------------------------------|--------------------------------|
D|--------------0-----------------|--------------------------------|
A|--------------------------------|--------------------------------|
E|5-------------------------------|3-----------2-0-----------------|

G|--------------------------------|--------------------------------|
D|----------------------0---------|------------0-------------------|
A|0-------------3-----------------|--------------------------------|
E|--------------------------------|3-------------------------------|

Verse:
G|--------------------------------|--------------------------------|
D|--------------------------------|--------------0-----------------|
A|--------------2-------1---------|0-------------------------------|
E|3-------------------------------|--------------------------------|

G|--------------------------------|--------------------------------|
D|--------------------------------|--------------1-----1-----------|
A|--------------2---------------3-|----------------------3-----1-0-|
E|3---------------------0---------|--------------------------------|

G|--------------------------------|--------------------------------|
D|--------------0-----------------|--------------2-----------------|
A|--------------------------------|------------2---------1---------|
E|------------------------------3-|--------------------------------|

G|--------------------------------|--------------------------------|
D|------------------------0-------|----------------0---------------|
A|0---------------3---------------|--------2-----------2-----------|
E|--------------------------------|3-------------------------------|


Chorus:
G|--------------------------------|--------------------------------|
D|--------------0-----0-----------|--------------------------------|
A|0-------------------------------|------------------------------0-|
E|--------------------------------|3-----------3---0---0-----------|

G|--------------------------------|--------------------------------|
D|--------------0-------0---------|--------------------------------|
A|--------0-----------------------|------------0-2-----2-----------|
E|------------------------------3-|------3-------------------------|

G|--------------------------------|--------------------------------|
D|--------------0-------0---------|--------------------------------|
A|0-----------0-------------------|----------------------------2---|
E|------------------------------3-|------------3-0-----------------|

G|--------------------------------|--------------------------------|
D|------------2-0-----------------|------------0-------------------|
A|0-------------------------------|----2---------------------------|
E|------------------------------3-|--------------------------------|

Horn Solo:
G|--------------------------------|--------------------------------|
D|--------------------------------|--------------0-----------------|
A|--------------2-------1---------|0-------------------------------|
E|3-------------------------------|--------------------------------|

G|--------------------------------|--------------5-----------------|
D|--------------------------------|--------------------5-----------|
A|--------------2-----------------|3-----6---------------3---------|
E|3---------------------0---------|------------------------------6-|


Chorus:
G|--------------------------------|--------------------------------|
D|--------------0-----------------|------------------------2-------|
A|--------------------------------|--------------2-----------------|
E|5-------------------------------|3-------------------------------|

G|--------------------------------|--------------------------------|
D|------------------------0-------|----------------0---------------|
A|0-------0-------3---------------|--------2-----------2-----------|
E|--------------------------------|3-------------------------------|

G|--------------------------------|--------------------------------|
D|----------------0---0-----------|--------------2-----------------|
A|0-------------------------------|------------2-------------------|
E|--------------------------------|3-------------------0-----------|

G|--------------------------------|--------------------------------|
D|--------------0---------0-------|--------------------------------|
A|0-------0-----------------------|--------------------2-----------|
E|--------------------------------|3-------3-----0-----------------|

G|--------------------------------|--------------------------------|
D|------------2-0-----------------|----------0-1-2-----------------|
A|0-------------------------------|--------------------------------|
E|--------------------2-----------|3-------------------0-----------|

G|--------------------------------|--------------------------------|
D|----------------0-------0-------|------------0-------------------|
A|0-------0-----------------------|----2-3-------------------------|
E|--------------------------------|3-------------------------------|


Verse:
G|--------------------------------|--------------------------------|
D|--------------------------------|--------------0-----------------|
A|--------------2-------1---------|0-------------------------------|
E|3-------------------------------|--------------------------------|

G|--------------------------------|--------------------------------|
D|--------------------------------|--------------1-----0-----------|
A|--------------2---------------3-|------------------------3-2-----|
E|3---------------------0---------|--------------------------------|


Chorus:
G|--------------------------------|--------------------------------|
D|--------------0-------0---------|--------------2-----------------|
A|0-------------------------------|------2-----------------2---1-0-|
E|--------------------------------|3-------------------------------|

G|--------------------------------|--------------------------------|
D|------------------------0-------|--------------2-----2-----------|
A|------------0-3-----------------|------------2---2-------2-------|
E|--------------------------------|3-------------------------------|

G|--------------------------------|--------------------------------|
D|------------------------0-------|------------2-------------------|
A|0-------2-------3---------------|------2-----------------------0-|
E|--------------------------------|3-------------------------------|

G|--------------------------------|--------------------------------|
D|--------------------------------|--------------0-------0---------|
A|------------0-0-------------0-3-|------------3-------------------|
E|--------------------------------|------------------------------3-|

G|--------------------------------|--------------------------------|
D|--------------------------------|----2-4-----5-------------------|
A|--------2-----3-------4-------5-|--------------------------------|
E|--------------------------------|--------------------------------|

Almost there ...

Sign in to get your own page with links to favourite songs and more. You are just one click away...

Login with Facebook Login with Google