Log in

One click and you are in

Login with Facebook Login with Google

Why sign up and log in

Guitar Tabs Explorer
Wings bass tabs for Arrow through me

Bass tabs

Tuning: Standard (E A D G)

Key: E

Difficulty: Intermediate
Intro:
G| ----------------|---------------- |
D|•--4---4---4---4-|--5---5---5---5-•|
A|•----------------|----------------•|
E| 2---2---2--2----|3---3---3--3---- |


G|----------------|---------------- |
D|--4---4---4-----|---------------- |
A|----------------|---------------- |
E|2---2---2--1----|-0-------------- |


Verse:
G| ----------------|--2---2---6---6-|--6-6---|
D|•--2---2---2---2-|----------------|--------|
A|•----------------|0--00--04--44--4|4--4----|
E| 0--00--00--00--0|----------------|-----3--|


G|----------------|----------4---4- |
D|--4---4---4---4-|--4---4---------•|
A|----------------|--------2--22--2•|
E|2--22--22--22--2|2--22--2-------- |

Chorus:
G| 5--4--2--0------|3--2--0--3------ |
D|•----------------|----------------•|
A|•----------------|----------------•|
E| ----------------|---------------- |

G|-9-7-5-4--------|----|
D|----------------|----|
A|7-5-3-2-0---5---|6---|
E|----------------|----|


Verse:
G| ----------------|--2---2---6---6-|--6-6---|
D|•--2---2---2---2-|----------------|--------|
A|•----------------|0--00--04--44--4|4--4----|
E| 0--00--00--00--0|----------------|-----3--|

G| ----------------|------------ |3x
D|•--4---4---4-----|--5---5---5-•|
A|•----------------|------------•|
E| 2---2---2--2--3-|----3---3--2 |


Interlude:


G|----------------|----------------|--------|
D|--4---4---4-----|----------------|--------|
A|----------------|----------------|--------|
E|2---2---2--1--1-|1--1--1--1--1-0-|--------|


Verse:
G| ----------------|--2---2---6---6-|--6-6---|
D|•--2---2---2---2-|----------------|--------|
A|•----------------|0--00--04--44--4|4--4----|
E| 0--00--00--00--0|----------------|-----3--|


G|----------------|----------4---4- |
D|--4---4---4---4-|--4---4---------•|
A|----------------|--------2--22--2•|
E|2--22--22--22--2|2--22--2-------- |


Chorus:
G| 5--4--2--0------|3--2--0--3------ |
D|•----------------|----------------•|
A|•----------------|----------------•|
E| ----------------|---------------- |

G|-9-7-5-4--------|----|
D|----------------|----|
A|7-5-3-2-0---5---|6---|
E|----------------|----|


Verse:
G|----------------|--2---2---6---6-|--6-6---|
D|--2---2---2---2-|----------------|--------|
A|----------------|0--00--04--44--4|4--4----|
E|0--00--00--00--0|----------------|-----3--|


G| ----------------|------------ |11x
D|•--4---4---4-----|--5---5---5-•|
A|•----------------|------------•|
E| 2---2---2--2--3-|----3---3--2 |

Interlude:
G|----------------|----------------|--------|
D|--4---4---4-----|----------------|--------|
A|----------------|----------------|--------|
E|2---2---2--1--1-|1--1--1--1--1-0-|--------|

Coda:
G|----------------|----------------|--------|
D|----------------|----------------|--------|
A|----------------|----------------|--------|
E|2---------------|1---------------|0-------|

Almost there ...

Sign in to get your own page with links to favourite songs and more. You are just one click away...

Login with Facebook Login with Google