Log in

One click and you are in

Login with Facebook Login with Google

Why sign up and log in

Guitar Tabs Explorer
Amy Winehouse bass tabs for Valerie

Bass tabs

Intro (come in with drums)
G|-----------------------------------------------------------|
D|-----------------------------------------------------------|
A|-6-x6-x6-x66-xx6-x6-x6-x66-xx6-x6-x6-x66-xx6-x6-x6-xx6x----|
E|-------------------------------------------------------6h8-|

 Verse
G|------------------------------------------------------|
D|------------------------------------------------------|
A|-6-x6-x6-xx66-6-x6-x6-xx6658-x8-x8-xx88-8-x8-x8-xx887-|
E|-------------6-------------------------8--------------|

G|---------------------------------------------------------|
D|----------------------------------------------------66---|
A|-6-x6-x6-xx66-6-x6-x6-xx6568-x8-x8-xx88-8-x8-x8-xx88---8-|
E|-------------6-------------------------8-----------------|


 Pre Chorus
G|--------------------------------------------------------------------------|
D|------------------------------------------------------------------x8-6-5--|
A|----------------------------------------6-------------------------------8-|
E|4-x4-x4-x44-4-3-x3-x3-x33-3-4-x4-x4-x44---3-x3-x3-x3456-x6-x6-x666--------|


 Outro
G|--------------------------------------------------------------|
D|----------------------------------------------------8-6-5-----|
A|-6-x6-x6-xx66-6-x6-x6-xx6658-x8-x8-xx88-8-x8-x8-xx88-----8-6~-|
E|-------------6-------------------------8----------------------|

ⓘ Bass guitar tab for 'Valerie' by Amy Winehouse, a female soul artist from London, England. Amy Winehouse was born in 1983. She passed away in 2011. Amy Winehouse was known for her troubled rock/pop music.

Other versions of Valerie

Valerie (Ver. 2)Bass tabs

Almost there ...

Sign in to get your own page with links to favourite songs and more. You are just one click away...

Login with Facebook Login with Google